Enviar cifraEntrar

Don't Go Away

Oasis

Acordes: Principal
reproducciones 21.707
Tono: C
Intro 2x:                                                      (viradinha)

              Am7   G               Fmaj7          Dsus2
E|-----------------------------------------------------------|----------|
B|-----------------------------------------------------------|----------|
G|--------5h7b*----7b7---5---7---5---------------------------|---5------|
D|--5h7-----------------------------7----7---7-------------7-|------7~--|
A|-----------------------------------------------5h7-5--0----|----------|
E|-----------------------------------------------------------|----------|


Verso 1:
 Am7                             G
A cold and frosty morning there's not a lot to say
          Fmaj7                    Dsus2
About the things caught in my mind
Am7                       G
As the day was dawning my plain flew away
             Fmaj7                    Dsus2
With all the things caught in my mind

Ponte:
Dm                                   F
And I don't wanna be there when you're coming down
Dm                                   F             G
And I don't wanna be there when you hit the ground

Refrão:
            C                  G/B
So don't go away, say what you say
                    Am7                 G
But say that you'll stay, forever and a day
                   F                       G
In the time of my life, cause I need more time
                Am             G           F
Yes I need more time just to make things right

Verso 2:
Am7                        G
Damn my situation and the games I have to play
             Fmaj7                   Dsus2
With all the things caught in my mind
Am7                     G
Damn my education I can't find the words to say
          Fmaj7                    Dsus2
About the things caught in my mind

Ponte:
Dm                                    F
And I don't wanna be there when you're coming down
Dm                                    F
And I don't wanna be there when you hit the ground

Refrão:
  G              C                 G/B
So don't go away, say what you say
    ´                 Am7                  G
But say that you'll stay, forever and a day
                   F                      G
In the time of my life cause I need more time
                Am             G           F
Yes I need more time just to make things right

Fm
Me and you what's going on
Solo 1:

      C          G           Am
E|---------------------------------|
B|---------------------------------|
G|-----5----5-7b-5---5--5----------|
D|-5h7----7--------7------7--------|
A|---------------------------------|
E|---------------------------------|


F                             Fm
All we seem to know is how to show the feelings that are wrong
Solo 2:

      C                 G                    Am                         G                     F
E|-------------------------------8--10-8-------8----8-10-8------8-8------8----8-10-8------8--|
B|-------------------------8--10----------8-10---10--------8-10-----8-10---10--------8-10----|
G|-----5--5-7b-7b-5---5-9--------------------------------------------------------------------|
D|-5h7--------------7------------------------------------------------------------------------|
A|-------------------------------------------------------------------------------------------|
E|-------------------------------------------------------------------------------------------|


Refrão 2x:
  G             C               G/B
So don't go away, say what you say
    ´               Am7                 G
But say that you'll stay, forever and a day
                   F                     G
In the time of my life cause I need more time
                Am             G         F
Yes I need more time just to make things right (2x)
                Am             G         F
Yes I need more time just to make things right
                Am             G         F
Yes I need more time just to make things right
                            Am             G                 F        Fm
Yes I need more time just to make things right
               C
So, don't go away

   ( Am G F  Dm )
E|---------------3-----------------3----
B|----------1--------1--------1---------
G|----4------------------4--------------
D|--------------------------------------
A|--------------------------------------
E|--------------------------------------
  • 1
  • 2
  • 3
  • 4
  • 5
  • 6
  • 7
  • 8
  • 9
  • 10
  • 11
  • 12
    Acordes para:

      0 comentarios

        mostrar mas comentarios

        ¿Conseguiste tocar?

        67tocaron0aún no

        ¡Grave un vídeo tocando Don't Go Away y envie para nosotros!

        00:00 / 00:00
        outros vídeos desta música
        repetirqualidadeautomática
        • automática
        Outro vídeos desta música
          00:00 / 00:00
          automática
          • automática
          Acordes para:guitarra
          dificuldadreproduccionescontribuciones
          1 versión de Bateríareproduccionescontribuciones
          1 versión de Armónicareproduccionescontribuciones
          1 versión de Guitar Proformatodownloadscontribución
          cerrarplay/pause subir/bajar velocidad
            acordes
            cerrar
            OK
            Feedback