Cifra Club

Live Forever

Oasis

Tablatura: Principal (guitarra)
reproducciones 27.976
Tono: C
 G              D
Maybe, I don't really wanna know
          Am7
How your garden grows
C              D
'Cause I just wanna fly

 G              D
Lately, did you ever feel the pain
        Am7
In the morning rain
       C               D
As it soaks you to the bone

Em                     D
  Maybe I just wanna fly
                          Am7
Wanna live I don't wanna die
                     C
Maybe I just wanna breathe
      D               Em
Maybe I just don't believe
                          D
Maybe you're the same as me
                             Am7
We see things they'll never see
                            F7M
You and I are gonna live forever

[Riff 1]

E|-------3-----------3----------------------|
B|---1-----1-----1-----1--------------------|
G|-----0-----0-----0-----0------------------|
D|-3-----------3----------------------------|
A|------------------------------------------|
E|------------------------------------------|

 G              D
Maybe, I don't really wanna know
          Am7
How your garden grows
C              D
'Cause I just wanna fly

 G              D
Lately, did you ever feel the pain
        Am7
In the morning rain
       C               D
As it soaks you to the bone

Em                    D
  Maybe I will never be
                            Am7
All the things that I want to be
                    C
But now is not the time to cry
        D              Em
Now's the time to find out why
                        D
I think you're the same as me
                             Am7
We see things they'll never see
                            F7M
You and I are gonna live forever

[Solo] G  D  Am7  C  D  G

E|------------------------------------------|
B|------------------------------------------|
G|-------12-14b16-14-12----12h14------------|
D|-12h14----------------14------------------|
A|------------------------------------------|
E|------------------------------------------|

E|------------------------------------------|
B|-14b16r14-12----12h14-----12----12--------|
G|-------------14-------14--12h14-12-12-----|
D|-----------------------------------12h14--|
A|------------------------------------------|
E|------------------------------------------|

E|------------------------------------------|
B|------------------------------------------|
G|----------------------12-14b16r14-12------|
D|-12-------------12h14----------------14---|
A|-12-10-10-12h14---------------------------|
E|------------------------------------------|

E|------------------------------------------|
B|-------14b16r14-12----12h14---------------|
G|-12h14-------------14-------14------------|
D|------------------------------------------|
A|------------------------------------------|
E|------------------------------------------|

E|------------------------------------------|
B|-------------------12/17~~----------------|
G|-12----12---------------------------------|
D|-12h14-12-12----12------------------------|
A|----------12h14-12------------------------|
E|------------------------------------------|

E|------------------------------------------|
B|-17\15----15------------------------------|
G|-------16----16-14-16-14\12----12-14-12---|
D|----------------------------14------------|
A|------------------------------------------|
E|------------------------------------------|

E|------------------------------------------|
B|------------------------------------------|
G|-14b16-14-12----12----------------12------|
D|-------------14----14-------12h14---------|
A|----------------------12h14---------------|
E|------------------------------------------|

E|------------------------------------------|
B|-------------------------------15-17| …-----|
G|-14b16-14b16-14p12----12-14\16------------|
D|-------------------14---------------------|
A|------------------------------------------|
E|------------------------------------------|

E|------------------------------------------|
B|-17\15----15------------------------------|
G|-------16----16-14-16-14\12----12-14-12---|
D|----------------------------14------------|
A|------------------------------------------|
E|------------------------------------------|

E|------------------------------------------|
B|------------------------------------------|
G|-14b16-14-12h14-12----------------12------|
D|-------------------14-------12h14---------|
A|----------------------12h14---------------|
E|------------------------------------------|

E|------------------------------------------|
B|------------------------------------------|
G|-------------12-12-------------12-14-12---|
D|-------12h14-------------12h14------------|
A|-12h14-------------12h14------------------|
E|------------------------------------------|

E|------------------------------------------|
B|------------------------------------------|
G|-14b16-14b16-14-12----12------------------|
D|-------------------14---------------------|
A|------------------------------------------|
E|------------------------------------------|

[Riff 2]

E|------------------------------------------|
B|12-12-12-13-12-12----------7-7-7-8-7-7----|
G|12-12-12-12-12-12-14~~~----7-7-7-7-7-7-9~~|
D|12-12-12-12-12-12----------7-7-7-7-7-7----|
A|------------------------------------------|
E|------------------------------------------|

 G              D
Maybe, I don't really wanna know
          Am7
How your garden grows
C              D
'Cause I just wanna fly

 G              D
Lately, did you ever feel the pain
        Am7
In the morning rain
       C               D
As it soaks you to the bone

Em                     D
  Maybe I just wanna fly
                          Am7
Wanna live I don't wanna die
                     C
Maybe I just wanna breathe
      D               Em
Maybe I just don't believe
                          D
Maybe you're the same as me
                             Am7
We see things they'll never see
                            F
You and I are gonna live forever

Am7             F
  Gonna live forever
Am7             F
  Gonna live forever
Am7             F
  Gonna live forever
Am7                    F
   We're gonna live forever
Am7                    F
   We're gonna live forever
Am7                    F
   We're gonna live forever
Am7                    F
   We're gonna live forever

[Solo Final] Am  F

E|------------------------------------------|
B|------------------------------------------|
G|---9p7-5---5-----------------5--5---------|
D|---------7-------------5-7-5------7-------|
A|--------------3-2-0~----------------------|
E|------------------------------------------|

E|------------------------------------------|
B|------------------------------------------|
G|-5---------5------------------------------|
D|---7-5-7-5---7----------------------------|
A|-----------------3-2-0~-------------------|
E|------------------------------------------|

E|------------------------------------------|
B|------------------------------------------|
G|---7b9-7-5---5-7b9-7-5---5---5------------|
D|-----------7-----------7---7---7~---------|
A|-----------------------------------3-2-0~-|
E|------------------------------------------|

E|------------------------------------------|
B|------------------------------------------|
G|-----5--5---------5-5-5-------------------|
D|---5----5--7-5h7----5---7-5h7-------------|
A|------------------------------------------|
E|------------------------------------------|

E|------------------------------------------|
B|------------------------------------------|
G|-5-5-5--------5-5-5-----------------------|
D|-5-5---7-5h7--5-5-5-7-5h7-----------------|
A|------------------------------------------|
E|------------------------------------------|

E|------------------------------------------|
B|------------------------------------------|
G|----------5~-5-------5~-5~-5--------------|
D|------5-7----5-7-5h7-------5-7-5h7--------|
A|--5-7-------------------------------------|
E|------------------------------------------|

E|------------------------------------------|
B|--------------------5~--------------------|
G|-5~-5~-5-------5~-5~5~--------------------|
D|-------5-5-5h7------5~--7-5h7p5h7~~-------|
A|------------------------------------------|
E|------------------------------------------|
Acordes para:

    0 comentarios

    mostrar más comentarios

    ¿Conseguiste tocar?

    96 tocaron 2 aún no

    ¡Graba un vídeo tocando Live Forever y envianoslo!

    00:00 / 00:00
    outros vídeos desta música
    repetir qualidade Automático
    Outros vídeos desta música
    00:00 / 00:00
    Automático
    OK