Cifra Club

Stop Crying Your Heart Out

Oasis

Cifrado: Principal (guitarra y guitarra eléctrica)
Selo Cifra Club: esta cifra foi revisada para atender aos critérios oficiais da nossa Equipe de Qualidade.
tono: D
[Intro] Bm

[Tab - Primeira Parte]

   Bm
E|-----------------------------------------|
B|-3--3--3--3--3--3--3--3------------------|
G|-4--4--4--4--4--4--4--4------------------| (2x)
D|-4--4--4--4--4--4--4--4------------------|
A|-2-----------2----------2----------------|
E|-----------------------------------------|

[Primeira Parte]

[Tab - Primeira Parte]

Parte 1 de 4
   Bm
E|-----------------------------------------|
B|-3---3---3---3----3---3---3---3----------|
G|-4---4---4---4----4---4---4---4----------|
D|-4---4---4---4----4---4---4---4----------|
A|-2-2---2---2---2--2-2---2---2---2--------|
E|-----------------------------------------|

Parte 2 de 4
   Bm/A
E|-----------------------------------------|
B|-3---3---3---3----3---3---3---3----------|
G|-4---4---4---4----4---4---4---4----------|
D|-4---4---4---4----4---4---4---4----------|
A|-0-0---0---0---0--0-0---0---0---0--------|
E|-----------------------------------------|

Parte 3 de 4
   E7
E|-----------------------------------------|
B|-3---3---3---3----3---3---3---3----------|
G|-1---1---1---1----1---1---1---1----------|
D|-2---2---2---2----2---2---2---2----------|
A|-----------------------------------------|
E|-0-0---0---0---0--0-0---0---0---0--------|

Parte 4 de 4
   G
E|-----------------------------------------|
B|-0---0---0---0----0---0---0---0----------|
G|-0---0---0---0----0---0---0---0----------|
D|-0---0---0---0----0---0---0---0----------|
A|-----------------------------------------|
E|-3-3---3---3---3--3-3---3---3---3--------|

Parte 4 de 4 - Variação
   G
E|-----------------------------------------|
B|-0---0---0---0----2---2---2---2----------|
G|-0---0---0---0----2---2---2---2----------|
D|-0---0---0---0----0---0---0---0----------|
A|-----------------------------------------|
E|-3-3---3---3---3--3-3---3---3---3--------|

     Bm
Hold up
     Bm/A
Hold on
           E7
Don't be scared
                            G
You'll never change what's been and gone

           Bm
May your smile
      Bm/A
Shine on
            E7
Don't be scared
                  G
Your destiny may keep you warm

[Refrão]

[Tab - Refrão]

   G7M
E|----2--0--2-----2--0--2----------------|
B|-3--3--3--3--3--3--3--3----------------|
G|-0-----0-----0-----0-------------------|
D|-0-----------0-------------------------|
A|---------------------------------------|
E|-3-----------3-------------------------|

                    D
'Cause all of the stars
             A4
Are fading away
                 Em7(9)
Just try not to worry
                     G7M
You'll see them someday
               D
Take what you need
                E7
And be on your way
                      G7M
And stop crying your heart out

[Segunda Parte]

    Bm11
Get up (get up)
     Bm11/A
Come on (come on)
             E7
Why're you scared? (I'm not scared)
                            G
You'll never change what's been and gone

[Refrão]

                    D
'Cause all of the stars
             A4
Are fading away
                 Em7(9)
Just try not to worry
                     G7M
You'll see them someday
               D
Take what you need
                E7
And be on your way
                       G7M
And stop crying your heart out

( D  A4  Em7(9)  G )
( D  E7  G7M )

[Tab - Interlúdio]

Parte 1 de 4
   D
E|----2--0--2-----2--0--2----------------|
B|-3--3--3--3--3--3--3--3----------------|
G|-2-----------2-------------------------|
D|-0-----------0-------------------------|
A|---------------------------------------|
E|---------------------------------------|

Parte 2 de 4
   A4
E|----2--0--2-----2--0--2----------------|
B|-3--3--3--3--3--3--3--3----------------|
G|-2-----------2-------------------------|
D|-2-----------2-------------------------|
A|-0-----------0-------------------------|
E|---------------------------------------|

Parte 3 de 4
   Em7(9)
E|----2--0--2-----2--0--2----------------|
B|-3--3--3--3--3--3--3--3----------------|
G|-2-----------2-------------------------|
D|---------------------------------------|
A|-0-----------0-------------------------|
E|---------------------------------------|

Parte 4 de 4
   G
E|----2--0--2-----2--0--2----------------|
B|-3--3--3--3--3--3--3--3----------------|
G|-0-----------0-------------------------|
D|-0-----------0-------------------------|
A|---------------------------------------|
E|-3-----------3-------------------------|

Parte 1 de 4
   D
E|----2--0--2-----2--0--2----------------|
B|-3--3--3--3--3--3--3--3----------------|
G|-2-----------2-------------------------|
D|-0-----------0-------------------------|
A|---------------------------------------|
E|---------------------------------------|

Parte 3 de 4 - Variação
   E7
E|----2--0--2-----2--0--2----------------|
B|-3--3--3--3--3--3--3--3----------------|
G|-1-----1-----1-----1-------------------|
D|-2-----------2-------------------------|
A|---------------------------------------|
E|-0-----------0-------------------------|

Parte 4 de 4
   G
E|----2--0--2-----2--0--2----------------|
B|-3--3--3--3--3--3--3--3----------------|
G|-0-----------0-------------------------|
D|-0-----------0-------------------------|
A|---------------------------------------|
E|-3-----------3-------------------------|

[Refrão Final]

                    D
'Cause all of the stars
             A4
Are fading away
                 Em7(9)
Just try not to worry
                     G7M
You'll see them someday
               D
Take what you need
                A4
And be on your way
                       Em7(9)  G7M
And stop crying your heart out

[Tab - Refrão Final]

Parte 1 de 2
   Em7(9)
E|----2--0--2-----2--0--2----------------|
B|-3--3--3--3--3--3--3--3----------------|
G|-0-----0-----0-----0-------------------|
D|-0-----------0-------------------------|
A|---------------------------------------|
E|-0-----------0-------------------------|

Parte 2 de 2
   G
E|----2--0--2-----2--0--2----------------|
B|-3--3--3--3--3--3--3--3----------------|
G|-0-----0-----0-----0-------------------|
D|---------------------------------------|
A|---------------------------------------|
E|-3-----------3-------------------------|

                       D
Where are all of the stars?
             A4
Are fading away
                 Em7(9)
Just try not to worry
                     G7M
You'll see them someday
               D
Take what you need
                A4
And be on your way

                       Em7(9)  G7M
And stop crying your heart out
                       Em7(9)  G7M
And stop crying your heart out
                       Em7(9)  G7M
And stop crying your heart out
                       Em7(9)  G7M
And stop crying your heart out

[Final] Em7(9)  G7M  Em7(9)  G7M
        Em7(9)  G7M  Em7(9)  G7M
        D  A4  Em7(9)  G7M
        D  A4  Em  G7M

[Tab - Final]

Parte 1 de 4
   D
E|-------2--0--0----0--0--0--------------|
B|-3--3--3--3--3----3--3--3--------------|
G|-2--2-----2----2--2--2--2--------------|
D|-0--------0----0-----------------------|
A|---------------------------------------|
E|---------------------------------------|

Parte 2 de 4
   A4
E|-------2--0--0----0--0--0--------------|
B|-3-----3--3--3----3--3--3--------------|
G|-2--------2----2--2--2--2--------------|
D|-2--------2----2-----------------------|
A|-0--------0----0-----------------------|
E|---------------------------------------|

Parte 3 de 4
   Em7(9)             G7M
E|----2-----0-0---------2--0-0---0-------|
B|-3--3-----3-3---0-3---3--3-3---3-3-3---|
G|-0--0-----0-0---0-0-0----0-0---0-0-0---|
D|-2----2-2-2-----0-0-0----0-0-0-0-0-0---|
A|---------------------------------------|
E|-0----0-0-0---0-----3--------3---------|

Parte 1 de 4
   D
E|-------2--0--0----0--0--0--------------|
B|-3--3--3--3--3----3--3--3--------------|
G|-2--2-----2----2--2--2--2--------------|
D|-0--------0----0-----------------------|
A|---------------------------------------|
E|---------------------------------------|

Parte 2 de 4
   A4
E|-------2--0--0----0--0--0--------------|
B|-3-----3--3--3----3--3--3--------------|
G|-2--------2----2--2--2--2--------------|
D|-2--------2----2-----------------------|
A|-0--------0----0-----------------------|
E|---------------------------------------|

Parte 4 de 4
   Em7(9)             G7M           D
E|----------0----------------2--0---2----|
B|------0---0------0--3------3--3-0-3----|
G|------0---0------0--0------0--0-0-2----|
D|-2--------2------0--0------0--0-0-0----|
A|-2-------------------------------------|
E|-0--------0-----------3----------------|
Otros videos de esta canción
    1.133.131 exhibiciones
    • Simplificar cifrado
      • ½ Tono
      • A
      • Bb
      • B
      • C
      • Db
      • D
      • Eb
      • E
      • F
      • F#
      • G
      • Ab
    • Agregar a la lista

    Afinación de cifrado

    Afinador online

      Capítulos
      • Início
      • Tocando a música
      • Acordes da Introdução e Primeira Parte
      • Tocando Introdução e Primeira Parte
      • Ensinando Introdução e Primeira Parte
      • Acordes do Refrão
      • Tocando Refrão
      • Ensinando Refrão
      • Acordes das Variações
      • Tocando Repetições e Variações
      • Acordes do Final
      • Tocando Final
      • Ensinando Repetições e Final
      • Encerramento
      OK