Notificações Amigos pendentes

      Oasis

      Sunday Morning Call

      1.486 reproducciones
      Tono: A#
      Acordes:
      
      
       | Bb:   | Dm:   | D:    | G:    | Em7:  | C9:   | G/B:  | F:    |
      | e|--6- | e|--0- | e|--2- | e|--3- | e|--0- | e|--0- | e|--0- | e|--1- |
      | B|--6- | B|--6- | B|--3- | B|--3- | B|--3- | B|--3- | B|--3- | B|--1- |
      | G|--7- | G|--7- | G|--2- | G|--0- | G|--0- | G|--0- | G|--0- | G|--2- |
      | D|--8- | D|--0- | D|--0- | D|--0- | D|--2- | D|--2- | D|--0- | D|--3- |
      | A|--8- | A|--x- | A|--x- | A|--x- | A|--2- | A|--3- | A|--2- | A|--3- |
      | E|--6- | E|--x- | E|--x- | E|--3- | E|--0- | E|--x- | E|--x- | E|--1- |
      
      
      
      Intro: Bb
      
      Arranjo da introdução:
      
      1o violão:      2o violão:
      
      E|-4--4h5--|    e|-6--6----|
      B|-3--3----|    B|-6--6----|
      G|-3--3----|    G|-7--7----|
      D|-3--3----|    D|-6--6h8--|
      A|---------|    A|-8--8----|
      E|---------|    E|-6--6----|
      
      
      
      Bb                       Dm
         Here's Another Sunday Morning Call
                   Bb                       Dm
         Yer Hear Yer Head A Banging On The Door
      Bb                        Dm
         Slip Your Shoes On And Then Out You Crawl
                 Bb                        Dm
         Into A Day That Couldn't Give You More
                  D
         But What For 
      
      
      Chorus:
                      G           D
         And In Your Head Do You Feel
                     Em7              C9
         What You're Not Supposed To Feel
                  G             D
         and You Take What You Want
                  F               Em7   D
         But You Don't Get It For Free
              G         D
         You Need More Time
                    Em7                      C9           G
         'Cos Your Thoughts And Words Won't Last Forever More
                      D         Em7             C9
         But I'm Not Sure If It Ever Works Out Right
                  D  C9 G/B C9
         But It's Ok          
                   D C9 G/B
         It's All Right
      
      Dedilhado da parte acima: "but it's ok... it's all right" 
      
      E|-----------------------------0---------------------------0--------|
      B|-----3-------3-------3---------3-----3-------3-------3-----3------|
      G|---2---2---2---2---0---0---0-------2---2---2---2---0---0-----0----|
      D|-0-------------------------------0-----------------------------0--|
      A|---------3-------2-------3---------------3-------2----------------|
      E|------------------------------------------------------------------|
      
      
      
      Bb                         Dm
         When Yer Lonely And You Start To Hear
                    Bb                     Dm
         The Little Voices In Your Head At Night
      Bb                     Dm
         You Will Only Sniff Away The Tears
                    Bb                      Dm
         So You Can Dance Until The Morning Light
                  D
         At What Price 
      
      
      Chorus:
                   G           D
         And In Your Head Do You Feel
                     Em7              C9
         What You're Not Supposed To Feel
                  G             D
         and You Take What You Want
                  F               Em7   D
         But You won't Get It For Free
              G         D
         You Need More Time
                    Em7                      C9           G
         'Cos Your Thoughts And Words Won't Last Forever More
                      D         Em7             C9
         But I'm Not Sure If It Ever Works Out Right
                  D  C9 G/B C9
         But It's Ok          
                   D C9 G/B
         It's All Right
      
      Dedilhado da parte acima: "but it's ok... it's all right" 
      
      E|-----------------------------0---------------------------0--------|
      B|-----3-------3-------3---------3-----3-------3-------3-----3------|
      G|---2---2---2---2---0---0---0-------2---2---2---2---0---0-----0----|
      D|-0-------------------------------0-----------------------------0--|
      A|---------3-------2-------3---------------3-------2----------------|
      E|------------------------------------------------------------------|
      
      
      Quero dedicar essa música a duas amigas que são super fãs do Oasis,
      Juliana e Yone (ananindeua/Pa)
      Adoro vocês! Um beijão do seu amigo! Juli =** 
      Ass: Flávio Mendes Soares
      
      Solo:         _______________________________________________________
      
                   |                                                       |
      
      
       Base do solo:  G F G Bb C Bb C Bb G F G Bb C Bb C (C G/B C)->[D] C D
                   |_______________________________________________________|
      
      
      OBS: A nota que está entre [ ] é de dois tempos; 
           As notas que estão entre ( ) são passagem p/ 
           nota de dois tempos e terminar o solo.
      
      Tab do Solo: (by: Flávio Mendes Soares)
      
      E|------------------------------------------------------------------------|
      B|---3----3---------------------------------------------------------------|
      G|---5b7~-5b7~--3--------------3---3~-----------5--------------5----------|
      D|----------------5~~------3h5---5----5~~---5/7---5b7-5~~--5/7---5b7-5~~--|
      A|---------------------3h5------------------------------------------------|
      E|------------------------------------------------------------------------|
      
      
      E|------------------------------------------------------------------------------|
      B|---3----5---------------------------------------------------------------------|
      G|---5b7~---5b7~--3----------------3---3~-------------5--------------5----------|
      D|-------------------5~~------3h5----5----5-3-5~--5/7---5b7-5~~--5/7---5b7-5~~--|
      A|------------------------3h5---------------------------------------------------|
      E|------------------------------------------------------------------------------|
      
      
      E|-------------|
      B|-------------|
      G|--5-4-5-5/7~-|
      D|-------------|
      A|-------------|
      E|-------------|
      
      
      
      Chorus:
      
                      G           D
         And In Your Head Do You Feel
                     Em7              C9
         What You're Not Supposed To Feel
                  G             D
         and You Take What You Want
                  F               Em7   D
         But You won't Get It For Free
              G         D
         You Need More Time
                    Em7                      C9           G
         'Cos Your Thoughts And Words Won't Last Forever More
                      D            F         C9             G    D
         And I'm Not Sure If It'll Ever Ever Ever Work Out Right
                 F         C9             G    D
         Will It Ever Ever Ever Work Out Right 
                 F           C9               G
         'Cos It Never Never Never Works Out Right
        Composición: Noel GallagherColaboración y revision:
        • Gianfranco

        Comentarios 7

        140 .
        • budega budega: Em 24/02/2014 23:22

          Do Karaleo

        • Bruno Bruno: Em 05/11/2013 20:59

          oasis eh noel

        • cinderellarock cinderellarock: Em 24/03/2013 23:14

          A banda é fantástica...Muito boa...Gosto mais do Noel cantando...Ele tem uma melodia na voz que deixa as músicas perfeitas...

        • joão joão: Em 17/12/2011 12:52

          oasis é foda! pena q o cifraclub só tem uma videoaula as musicas deles são incríveis

        • strings strings: Em 08/12/2011 12:41

          bando de cachorro que ficam bringando

        • bologna.gordo bologna.gordo: Em 16/11/2011 21:12

          Pena que os irmãos Gallagher ficam nessa criancisse... Por que oasis é uma baita banda!

        • cryuz cryuz: Em 12/07/2011 18:41

          Caramba, Oasis é Oasis.

        140 cancelar

        ¿conseguiste tocar?

        • •••

        covers

        ¡Grave un vídeo tocando Sunday Morning Call y envie para nosotros!

        Ex.: http://www.youtube.com/watch?v=0IvSvIwGdwk
        ver cover de otras canciones »
        0:00 / 0:00

        Capitulos

          2 versões de guitarra dificuldad reproducciones contribuición y correción
          2 versões de guitarra eléctrica dificuldad reproducciones contribuición y correción
          2 versões de cavaco dificuldad reproducciones contribuición y correción
          2 versões de teclado dificuldad reproducciones contribuición y correción
          2 versões de contrabajo reproducciones contribuición y correción
          1 versão de Guitar Proformatodownloadscontribuición
          play/pausefechar subir/bajar velocidad
          6ª cuerda E5ª cuerda A4ª cuerda D3ª cuerda G2ª cuerda B1ª cuerda E
            acordes
            publicidad
            cerrar
            ok