Enviar cifraEntrar

Sunday Morning Call

Oasis

Acordes: Principal
reproducciones 1.629
Tono: A#
Acordes:


 | Bb:   | Dm:   | D:    | G:    | Em7:  | C9:   | G/B:  | F:    |
| e|--6- | e|--0- | e|--2- | e|--3- | e|--0- | e|--0- | e|--0- | e|--1- |
| B|--6- | B|--6- | B|--3- | B|--3- | B|--3- | B|--3- | B|--3- | B|--1- |
| G|--7- | G|--7- | G|--2- | G|--0- | G|--0- | G|--0- | G|--0- | G|--2- |
| D|--8- | D|--0- | D|--0- | D|--0- | D|--2- | D|--2- | D|--0- | D|--3- |
| A|--8- | A|--x- | A|--x- | A|--x- | A|--2- | A|--3- | A|--2- | A|--3- |
| E|--6- | E|--x- | E|--x- | E|--3- | E|--0- | E|--x- | E|--x- | E|--1- |



Intro: Bb

Arranjo da introdução:

1o violão:      2o violão:

E|-4--4h5--|    e|-6--6----|
B|-3--3----|    B|-6--6----|
G|-3--3----|    G|-7--7----|
D|-3--3----|    D|-6--6h8--|
A|---------|    A|-8--8----|
E|---------|    E|-6--6----|



Bb                       Dm
   Here's Another Sunday Morning Call
             Bb                       Dm
   Yer Hear Yer Head A Banging On The Door
Bb                        Dm
   Slip Your Shoes On And Then Out You Crawl
           Bb                        Dm
   Into A Day That Couldn't Give You More
            D
   But What For 


Chorus:
                G           D
   And In Your Head Do You Feel
               Em7              C9
   What You're Not Supposed To Feel
            G             D
   and You Take What You Want
            F               Em7   D
   But You Don't Get It For Free
        G         D
   You Need More Time
              Em7                      C9           G
   'Cos Your Thoughts And Words Won't Last Forever More
                D         Em7             C9
   But I'm Not Sure If It Ever Works Out Right
            D  C9 G/B C9
   But It's Ok          
             D C9 G/B
   It's All Right

Dedilhado da parte acima: "but it's ok... it's all right" 

E|-----------------------------0---------------------------0--------|
B|-----3-------3-------3---------3-----3-------3-------3-----3------|
G|---2---2---2---2---0---0---0-------2---2---2---2---0---0-----0----|
D|-0-------------------------------0-----------------------------0--|
A|---------3-------2-------3---------------3-------2----------------|
E|------------------------------------------------------------------|



Bb                         Dm
   When Yer Lonely And You Start To Hear
              Bb                     Dm
   The Little Voices In Your Head At Night
Bb                     Dm
   You Will Only Sniff Away The Tears
              Bb                      Dm
   So You Can Dance Until The Morning Light
            D
   At What Price 


Chorus:
             G           D
   And In Your Head Do You Feel
               Em7              C9
   What You're Not Supposed To Feel
            G             D
   and You Take What You Want
            F               Em7   D
   But You won't Get It For Free
        G         D
   You Need More Time
              Em7                      C9           G
   'Cos Your Thoughts And Words Won't Last Forever More
                D         Em7             C9
   But I'm Not Sure If It Ever Works Out Right
            D  C9 G/B C9
   But It's Ok          
             D C9 G/B
   It's All Right

Dedilhado da parte acima: "but it's ok... it's all right" 

E|-----------------------------0---------------------------0--------|
B|-----3-------3-------3---------3-----3-------3-------3-----3------|
G|---2---2---2---2---0---0---0-------2---2---2---2---0---0-----0----|
D|-0-------------------------------0-----------------------------0--|
A|---------3-------2-------3---------------3-------2----------------|
E|------------------------------------------------------------------|


Quero dedicar essa música a duas amigas que são super fãs do Oasis,
Juliana e Yone (ananindeua/Pa)
Adoro vocês! Um beijão do seu amigo! Juli =** 
Ass: Flávio Mendes Soares

Solo:         _______________________________________________________

             |                                                       |


 Base do solo:  G F G Bb C Bb C Bb G F G Bb C Bb C (C G/B C)->[D] C D
             |_______________________________________________________|


OBS: A nota que está entre [ ] é de dois tempos; 
     As notas que estão entre ( ) são passagem p/ 
     nota de dois tempos e terminar o solo.

Tab do Solo: (by: Flávio Mendes Soares)

E|------------------------------------------------------------------------|
B|---3----3---------------------------------------------------------------|
G|---5b7~-5b7~--3--------------3---3~-----------5--------------5----------|
D|----------------5~~------3h5---5----5~~---5/7---5b7-5~~--5/7---5b7-5~~--|
A|---------------------3h5------------------------------------------------|
E|------------------------------------------------------------------------|


E|------------------------------------------------------------------------------|
B|---3----5---------------------------------------------------------------------|
G|---5b7~---5b7~--3----------------3---3~-------------5--------------5----------|
D|-------------------5~~------3h5----5----5-3-5~--5/7---5b7-5~~--5/7---5b7-5~~--|
A|------------------------3h5---------------------------------------------------|
E|------------------------------------------------------------------------------|


E|-------------|
B|-------------|
G|--5-4-5-5/7~-|
D|-------------|
A|-------------|
E|-------------|



Chorus:

                G           D
   And In Your Head Do You Feel
               Em7              C9
   What You're Not Supposed To Feel
            G             D
   and You Take What You Want
            F               Em7   D
   But You won't Get It For Free
        G         D
   You Need More Time
              Em7                      C9           G
   'Cos Your Thoughts And Words Won't Last Forever More
                D            F         C9             G    D
   And I'm Not Sure If It'll Ever Ever Ever Work Out Right
           F         C9             G    D
   Will It Ever Ever Ever Work Out Right 
           F           C9               G
   'Cos It Never Never Never Works Out Right
  • 1
  • 2
  • 3
  • 4
  • 5
  • 6
  • 7
  • 8
  • 9
  • 10
  • 11
  • 12
    Acordes para:
      Composición: Noel GallagherColaboración y revision:
      • Gianfranco

      0 comentarios

        mostrar mas comentarios

        ¿Conseguiste tocar?

        12tocaron0aún no

        ¡Grave un vídeo tocando Sunday Morning Call y envie para nosotros!

        00:00 / 00:00
        outros vídeos desta música
        repetirqualidadeautomática
        • automática
        Outro vídeos desta música
          00:00 / 00:00
          automática
          • automática
          Acordes para:guitarra
          dificuldadreproduccionescontribuciones
          2 versiones de Contrabajoreproduccionescontribuciones
          1 versión de Guitar Proformatodownloadscontribución
          cerrarplay/pause subir/bajar velocidad
            acordes
            cerrar
            OK
            Feedback