Cifra Club

Coming For You

The Offspring

Cifrado: Principal (guitarra y guitarra eléctrica)
tono: G
E|------------------------------------------------------------------|
B|------------------------------------------------------------------|
G|-----9--9--9--9---7--7--7--7------------------9--------7---7-/-9--|
D|-----9--9--9--9---7--7--7--7------------------9--------5---5-/-9--|
A|-----7--7--7--7---5--5--5--5------------------7---X3---5---5-/-7--|
E|----------------------------------------0-0-----------------------|
                                         PM PM
E|--------------------------------------------------------------------------|
B|--------------------------------------------------------------------------|
G|-----9--9--9--9--7--7--7--7----------9---------9-----5--7-----------------|
D|-----9--9--9--9--7--7--7--7----------9---X2 ---9--9--5--7-----------------|
A|-----7--7--7--7--5--5--5--5----------7---------7--9--3--5-----------------|
E|--------------------------------0-0---------------7-----------------------|
                                  PM PM
E|-----------------------------------------------------------|
B|-----------------------------------------------------------|
G|----9-9---------12--12---------------------------7--7-/-9--|
D|----9-9--10-10--12--12--12--12-/-14-------9------7--7-/-9--|
A|----7-7--10-10--10--10--12--12-/-14--3X---9-7X---5--5-/-7--|
E|---------8--8-----------10--10-/-12-------7----------------|
                                                   
E|--------------------------------------------------------------------------------------|
B|--------------------------------------------------------------------------------------|
G|-----9--9--9-9--9-----------7--7--/--9------------------------------------------------|
D|-----9--9--9-9--9-----------7--7--/--9------------------------------------------------|
A|----------------------------5--5--/--7------------------------------------------------|
E|--------------------------------------------------------------------------------------|

E|------------------------------------------------------------------|
B|------------------------------------------------------------------|
G|-----9--9--9--9---7--7--7--7------------------9--------7---7-/-9--|
D|-----9--9--9--9---7--7--7--7------------------9--------5---5-/-9--|
A|-----7--7--7--7---5--5--5--5------------------7---X3---5---5-/-7--|
E|----------------------------------------0-0-----------------------|

E|---------------------------------------|
B|---------------------------------------|
G|---9--9--9-9--9---------9-9--9--9-9-9--|
D|---9--9--9-9--9--after--9-9--9--9-9-9--|
A|------------------------7-7--7--7-7-7--|
E|---------------------------------------|

E|--------------------------------------------------------------------------|
B|--------------------------------------------------------------------------|
G|-----9--9--9--9--7--7--7--7----------9---------9-----5--7-----------------|
D|-----9--9--9--9--7--7--7--7----------9---X2 ---9--9--5--7-----------------|
A|-----7--7--7--7--5--5--5--5----------7---------7--9--3--5-----------------|
E|--------------------------------0-0---------------7-----------------------|

E|------------------------------------------------------------------------|
B|------------------------------------------------------------------------|
G|----9-9---------12--12-----------------------------------------9--------|
D|----9-9--10-10--12--12--12--12-/-14-------9-----10----12-------9--STOP--|
A|----7-7--10-10--10--10--12--12-/-14--X3---9-7X--10-X4-12-X4----7--------|
E|---------8--8-----------10--10-/-12-------7-----8-----10----------------|

E|---------------------------------------------------------------------------------------|
B|---------------------------------------------------------------------------------------|
G|----7-/-9--9-9-7----------7------------------------------------------------------------|
D|----7-/-9--9-9-7---8--8-8-7--------4x--------------------------------------------------|
A|----5-/-7--7-7-5---8--8-8-5------------------------------------------------------------|
E|-------------------6--6-6--------------------------------------------------------------|

E|------------------------------------------------------------------------------------|
B|------------------------------------------------------------------------------------|
G|---11b-10-11b-10--11/14--10---11b-10 11b-10--11/14--10--11b-10--11b-10---11/14--10--|
D|------------------------------------------------------------------------------------|
A|------------------------------------------------------------------------------------|
E|------------------------------------------------------------------------------------|
   
E|------------------------------------------------------------------------------------------------------|
B|-------------------------------16b-16b-16b-16-14--19-19b-199b-19b-19-17-------------------------------|
G|------------------------------------------------------------------------------------------------------|
D|------------------------------------------------------------------------------------------------------|
A|------------------------------------------------------------------------------------------------------|
E|------------------------------------------------------------------------------------------------------|
                                2:21 full bend

E|------------------------------------|
B|------------------------------------|
G|---9--9--9-9--9---------------------|
D|---9--9--9-9--9--after------9-------|
A|----------------------------9--13X--|
E|----------------------------7-------|

E|---------------------------------------------------|
B|---------------------------------------------------|
G|----7-/-9--9-9-7----------7--------------9-9--7-9--|
D|----7-/-9--9-9-7---8--8-8-7--------5x----9-9--7-9--|
A|----5-/-7--7-7-5---8--8-8-5--------------7-7--5-7--|
E|-------------------6--6-6--------------------------|

00:00 / 00:00
Otros videos de esta canción
Repetir
Otros videos de esta canción
Compositor no encontrado.
Colaboración y revisión:
  • Dean Barker
168 vistas
    • ½ Tono
    • A
    • Bb
    • B
    • C
    • Db
    • D
    • Eb
    • E
    • F
    • F#
    • G
    • Ab
  • Agregar a la lista

    0 comentarios

    Ver todos los comentarios

    ¿Lograste tocar?

    1 Tocaron 0 Aún no

    ¡Graba un video tocando Coming For You y envíanoslo!

    00:00 / 00:00
    OK