Cifra Club

Davi

Oficina G3

Cifrado: Principal (guitarra y guitarra eléctrica)
tono: Gm
[Intro] Gm  F  Gm  F

Gm                               Cm
  Os gigantes se levantam a cada dia
         Bb        Ab    Fm    Gm
A todo momento, tentando destruir
Gm                                     Cm
Nos gestos e no olhar, buscando nos tragar
            Bb        Eb
Ou tão somente, acovardar
                 D
Sem espada ou canhão
   Gm                  Cm
Porque do Senhor é a guerra
     Eb           D
O inimigo vem ao chão
    Gm                     Gm  F  Gm
Na força do braço de Deus

Gm                                      Cm
  Como um menino e uma pedra lançada ao ar
            Bb       Ab    Fm   Gm
É mais um Golias que vamos derrubar
Gm                                       Cm
Loucura para os homens, Sabedoria ao que crê
                                      Eb
Os mistérios de Deus, pra mim e pra você
        D4
Sem espada ou canhão
   Gm                Cm
Porque do Senhor é a guerra
     Eb  D4    D
O inimigo vem ao chão
   Gm                Cm
Na força do braço de Deus
       Eb  D4
Sem espada ou canhão
   Gm                Cm
Porque do Senhor é a guerra
     Eb  D4
O inimigo vem ao chão

[Solo]

   Eb9                 D9
E|-----------------------------------------------------------|
B|-----------------------------------------------------------|
G|-----------------------------------------------------------|
D|------5---5/---7---5---5/---7---5---5---4---4--------------|
A|--6-------6/---8---6---6/---8---6---6------------5---5~~---|
E|-----------------------------------------------------------|

    Gm                                                       C9
E|-------------------------------------8-10-8----------------------------------------------|
B|-----------------------------8-10-11---------11--10--8-----------------------------------|
G|----------------------7-8-10----------------------------10--9~~---10--9--7--9--10--5~~---|
D|--------------7-8-10---------------------------------------------------------------------|
A|--------5-6-8----------------------------------------------------------------------------|
E|--3-5-6----------------------------------------------------------------------------------|

   Eb9
E|------------------------------------------------------------10h--11----|
B|-----------------------------8--10--11/-13/-11--10--11--13-------------|
G|-------------------7--9--10--------------------------------------------|
D|--10--9--7--9--10------------------------------------------------------|
A|-----------------------------------------------------------------------|
E|-----------------------------------------------------------------------|

    D9
E|--15---14---15---17---18---17---15---14---|
B|------------------------------------------|
G|------------------------------------------|
D|------------------------------------------|
A|------------------------------------------|
E|------------------------------------------|

( Gm   C9   Eb9   D9   Gm   C9   Eb9   D9   D9 )

       Eb  D4  D
Sem espada ou canhão
   Gm                Cm
Porque do Senhor é a guerra
     Eb   D4   D
O inimigo vem ao chão
   Gm                Cm
Na força do braço de Deus
      Eb  D4  D
Sem espada ou canhão
   Gm                Cm
Porque do Senhor é a guerra
     Eb    D4  D
O inimigo vem ao chão
      Eb  D4  D
Sem espada ou canhão
   Gm                Cm
Porque do Senhor é a guerra
     Eb  D4    D
O inimigo vem ao chão
00:00 / 00:00
Otros videos de esta canción
Repetir
Otros videos de esta canción
Compositor no encontrado.
Colaboración y revisión:
641 vistas
  • Simplificar cifrado
    • ½ Tono
    • Am
    • Bbm
    • Bm
    • Cm
    • C#m
    • Dm
    • Ebm
    • Em
    • Fm
    • F#m
    • Gm
    • G#m
  • Agregar a la lista

    0 comentarios

    Ver todos los comentarios
    00:00 / 00:00
    OK