Notificações Amigos pendentes

      Oficina G3

      Depois da Guerra

      15 reproducciones
      Tono: C#
      Intro: G#5 E5 C#5 E5 Eb5 (4x)
      
      
      E|------14-----------------------------------|
      B|-16-14--16~--14--14-12-16-14-12-11-12-14---|
      G|----------------------------------------13~|
      D|-------------------------------------------|
      A|-------------------------------------------|
      E|-------------------------------------------|
      
      
      E|-------14-16-------------------------------------|
      B|-16-14-------16~-14--14-12-16-14-12-11-12-14-----|
      G|----------------------------------------------13~|
      D|-------------------------------------------------|
      A|-------------------------------------------------|
      E|-------------------------------------------------|
      
      
      
      
      
      G#5                                                E5    C#5
      Vejo ruínas de uma guerra, mas uma guerra por nossas mãos
      G#5                                              C#5
      As armas foram as palavras, a vaidade a motivação
      E5                       Eb5 C#5  E5               B5    F#5 G#5
      Feridas que sangraram a al-ma, a fé de muitos se perdeu
                                                         Bb5 B5 F#5 E5
      Um dia irmão um dia inimigo matou-se o amor que nos fez um
      
      ( C5 G#5 F5 )
      
      C5        G#5      F5                     G#5         Bb5
      Quem vencerá? Uma guerra entre irmãos, uma guerra perdida
      C5       G#5      F5                G#5      Bb5    C#5
      Quem perderá? Um povo escolhido, um povo ferido
      
      G#5                                                      E5  C#5
      Quebradas foram as alianças, palavras que trouxeram divisão
      G#5                                                    C#5
      Pregadas, cantadas, faladas por muitos que diziam ser irmãos
      E5                       Eb5  C#5 E5                 B5    F#5 G#5
      Feridas que sangraram a al-ma, a fé de muitos se perdeu
      G#5                                                              E5
      Na cruz o exemplo nos foi dado, onde ficou o amor que nos fez um?
      
      C5        G#5      F5                     G#5         Bb5
      Quem vencerá? Uma guerra entre irmãos, uma guerra perdida
      C5       G#5      F5                G#5      Bb5    C#5
      Quem perderá? Um povo escolhido, um povo ferido
      
      Solo:
      
      
      E|-----------------------------------------------------------|
      B|-----------------------------------------------------------|
      G|-----7--15b--13--12-8-10b-12-10---8--10-7b---/8---10---7--8|
      D|-/10---------------------------------------8---------------|
      A|-----------------------------------------------------------|
      E|-----------------------------------------------------------|
      
      
      E|---------------------------------------6---9-8-6-------------6-8-9--/16b-16b|
      B|------8--8--10--10--------------9-6------9-------9-9b--6-7-9----------------|
      G|-12----------------8-5---10-7-------7---------------------------------------|
      D|-----------------------6------8---------------------------------------------|
      A|----------------------------------------------------------------------------|
      E|----------------------------------------------------------------------------|
      
      
      E|-18-18-18p16-16-16-16p14-14-14-14p13-13-13-13p9-9--10b-10b--9-6------------|
      B|----------------------------------------------------------------9-6-----9-6|
      G|--------------------------------------------------------------------8-6----|
      D|---------------------------------------------------------------------------|
      A|---------------------------------------------------------------------------|
      E|---------------------------------------------------------------------------|
      
      
      E|-----------------------------------------------------------------------|
      B|-----------------------------------------------------------------------|
      G|-8-6-------------------------------------------------------------------|
      D|-----8-6-8-6-----8-6-8-6-----11-8--11-8------11-8-11-8-----------------|
      A|-------------8-6---------8-6------------11-8-----------11-8-8-6-8-6----|
      E|--------------------------------------------------------------------8-6|
      
      
      E|----------------------------------------------------------------------------------|
      B|----------------------------------------------------------------------------------|
      G|----------------------------------------------------------------------------------|
      D|--------------8-------------8--------------10---------------10---------------11---|
      A|-8-6-8-6--------11-9-8-9-11---11-9-8--9-11----13-11-9-11-13----13-11-9-11-13----15|
      E|---------8-6----------------------------------------------------------------------|
      
      
      E|-------------------------------------------------------------------------------9-11|
      B|-----------------------------------------------------------------------9-11-13-----|
      G|-------------------------------8---------------8---------------8-10-11-------------|
      D|-------------11------------------11-10-8-10-11---11-10-8-10-11---------------------|
      A|-13-11-13-15----15-13-11-13-15-----------------------------------------------------|
      E|-----------------------------------------------------------------------------------|
      
      
      E|-11-------------------9-13-9----------9-13b|
      B|-------------------11--------11----11------|
      G|----------------10--------------10---------|
      D|-------------11----------------------------|
      A|--------9-13-------------------------------|
      E|----6-9------------------------------------|
      
      
      Obs: esse último Riff, deve ser treinado com cautela, devido a alta velocidade com que é executado.
      
      
      Refrão (2x)
        Composición: Juninho Afram, Duca Tambasco e Jean CarllosColaboración y revision:
        • wiiistoon0058

        Comentarios 0

        140 .
        140 cancelar

        ¿conseguiste tocar?

        covers

        ¡Grave un vídeo tocando Depois da Guerra y envie para nosotros!

        Ex.: http://www.youtube.com/watch?v=0IvSvIwGdwk
        ver cover de otras canciones »
        0:00 / 0:00

        Capitulos

          1 versão de contrabajo reproducciones contribuición y correción
          play/pausefechar subir/bajar velocidad
          6ª cuerda E5ª cuerda A4ª cuerda D3ª cuerda G2ª cuerda B1ª cuerda E
            acordes
            publicidad
            cerrar
            ok