Cifra Club

Descanso

Oficina G3

Cifrado: Principal (guitarra y guitarra eléctrica)
Acompaña nuestras novedades de Cifra Club en español.
¡Sigue nuestro perfil en Instagram!
tono: D
Afinação: D A D G A D

[Intro] D

E|------------------------------------|
B|------------------------------------|
G|------------------------------------|
D|----0---0----0----0---0-------------|
A|--5---5---5----5----5---5-----------|
E|------------------------------------|

[Primeira Parte]

E|------------------------------------|
B|------------------------------------|
G|------------------------------------|
D|----0---0----0----0---0-------------|
A|--5---5---5----5----5---5-----------|
E|------------------------------------|

E|------------------------------------|
B|------0-----------------------------|
G|---------0--------------------------|
D|-----------4-----0---0---0---0------|
A|--5-----------5----5---5---5---5----|
E|------------------------------------|

E|------------------------------------|
B|------------------------------------|
G|------------------------------------|
D|----0---0----0----0---0-------------|
A|--5---5---5----5----5---5-----------|
E|------------------------------------|

E|------------------------------------|
B|------0-----------------------------|
G|---------0--------------------------|
D|-----------4-----0---0---0---0------|
A|--5-----------5----5---5---5---5----|
E|------------------------------------|

E|------------------------------------|
B|--5---5---5---5---------------------|
G|----0-------0-----------------------|
D|--------7---------7-----------------|
A|------------------------------------|
E|------------------------------------|

E|-----------------0------------------|
B|------------------------------------|
G|--------7---------------------------|
D|----x-------------------------------|
A|--7---7---7---7---------------------|
E|------------------------------------|

E|------------------0-----------------|
B|------------------------------------|
G|---------4--------------------------|
D|----0--------0----------------------|
A|--2---2----2---2--------------------|
E|------------------------------------|

[Primeira Parte]

D                     D4/G
Estou quase a desfalecer
 D                           D4/G
Dores vem, me fazem enfraquecer
     Em                    Bm
Mas posso Te encontrar em meu espírito

   D                 Am
Estar imerso em Tua paz
      D                Am
Continuo assim a caminhar

 D                        D4/G
Falhas que revelam o que sou
  D                      D4/G
Apenas mais um mero pecador
     Em                    Bm
Mas posso Te encontrar em meu espírito

   D                  Am
Estar imerso em Teu amor
      D           Am
Continuo assim a lutar

[Refrão]

 G                  D
Posso descansar em Ti
   D/A  Bm     A9      G     Em
Você   me ensinou meu Mestre
     G                    D
Que se o fardo estiver pesado
         A  Bm  A9        G
Posso colo_car     sobre Ti
   Em       D
E leve estarei

( Am9  D  Am9 )

[Segunda Parte]

D                       D4/G
Abro mão de tudo o que sou
 D                       D4/G
Só assim Tu poderás crescer
  Em
Grato sou ó Pai
     Bm
Por poder compreender

     D                      A9
Que não dependo das minhas mãos
       D                 A9
Mas estou seguro em sua redenção

[Refrão]

 G                  D
Posso descansar em Ti
   D/A  Bm     A9      G     Em
Você   me ensinou meu Mestre
     G                    D
Que se o fardo estiver pesado
         A Bm  A9        G
Posso colocar     sobre Ti
   Em     D
E leve estarei

[Solo] D  C5  E5
       D  C5  E5  D

E|------------------------------------|
B|---8p7------------------------------|
G|---------9p7p0--------------7~~-----| (4x)
D|-------7-------7p5p0----------------|
A|---------------------5h7/9----------|
E|-0----------------------------------|

E|------------------------------------|
B|------------------------------------|
G|-5-5-5-5-5-5-5-5--9-9-9-9-9-9-9-9---|
D|-5-5-5-5-5-5-5-5--9-9-9-9-9-9-9-9---|
A|-3-3-3-3-3-3-3-3--7-7-7-7-7-7-7-7---|
E|------------------------------------|

E|------------------------------------|
B|---8p7------------------------------|
G|---------9p7p0--------------7~~-----|
D|-------7-------7p5p0----------------|
A|---------------------5h7/9----------|
E|-0----------------------------------|

E|------------------------------------|
B|------------------------------------|
G|-5-5-5-5-5-5-5-5--9-9-9-9-9-9-9-9---|
D|-5-5-5-5-5-5-5-5--9-9-9-9-9-9-9-9---|
A|-3-3-3-3-3-3-3-3--7-7-7-7-7-7-7-7---|
E|------------------------------------|

E|------------------------------------|
B|---8p7------------------------------|
G|---------9p7p0--------------7~~-----|
D|-------7-------7p5p0----------------|
A|---------------------5h7/9----------|
E|-0----------------------------------|

[Terceira Parte]

Bm                  A9
   E mesmo que o futuro seja
   Em
Incerto ao meu entender
Bm                A9
   O que mais eu posso querer?
    F                   G
Se Tu és meu guia, não há o que temer

[Refrão]

                    D
Posso descansar em Ti
   D/A  Bm     A9      G     Em
Você   me ensinou meu Mestre
     G                    D
Que se o fardo estiver pesado
         A Bm  A9        Bm  G
Posso colocar     sobre Ti
     Bm  A9        G
Colocar     sobre ti
   Em       G  Em  G
E leve estarei

[Final] D  Am9  D  Am9
        D  Am9  D  Am9
Composición de Jackeline Dantas / Mauro Henrique
1.667 vistas
    • ½ Tono
    • A
    • Bb
    • B
    • C
    • Db
    • D
    • Eb
    • E
    • F
    • F#
    • G
    • Ab
  • Agregar a la lista

    0 comentarios

    Ver todos los comentarios
    00:00 / 00:00
    Outros vídeos desta música
    Repetir Calidad Automático
    Outros vídeos desta música
    00:00 / 00:00
    Automático
    OK