Cifra Club

Don't Give Up

Oficina G3

Cifrado: Principal (guitarra y guitarra eléctrica)
Acompaña nuestras novedades de Cifra Club en español.
¡Sigue nuestro perfil en Instagram!
tono: D
Int: D9 (D9/12) A Bm7 Gadd9

D9              A    Bm7     Gadd9
Eu nunca vou me afastar de Ti
            D9/F#     A
Já faz muito tempo que eu falei
D9              A    Bm7     Gadd9
Me lembro dos momentos junto a Ti
                D9/F#   A
Dos sonhos que nunca realizei
Bm7              F#m
Na falsa liberdade
Bm7         G               A
Do "tudo eu posso" sem me envolver
Bm7                F#m
Me perdi entre "amigos"
Bm7          G      A
Sozinho já não sei como voltar

D9      A               Bm7    Gadd9
Please, don´t give up now
          D9   A          Gadd9
It´s not easy, but I believe in you
  D/F#      A        D9
I trust in you, forever
D9      A                        Bm7    Gadd9
Please, I can see through your eyes
        D9   A          Gadd9
Your dreams, that never came true
    D/F#  A          D Riff 1
I´II help you, Don´t Give up
Riff1
B|-5-------8---------7---------5------
G|---7--------7----------7------------    2 Vezes
D|------7-------7-----------7---------



D9              A    Bm7      Gadd9
Hoje posso ver o seu amor
       D/F#
Como pude um dia me esquecer
        D9        Bm7           Gadd9
De braços abertos você pagou
               D/F#
O preço do perdão que me salvou
Bm7        F#m
  Te vejo tão longe
Bm7                G              A
Quero andar contigo, voltar atrás
Bm7              F#m
  Não sei como fazê-lo
Bm7           G       A
Me guiarei em seu amor por mim


A Base do solo é a mesma do refrão.
E|-----------------------------------------------------------------------------------|
B|-20--19-20-19-20-19--15/17---------------------------------------------------------|
G|----------------------------17-15-17-17-15-17/19-15-14-15-14-----------------------|
D|-------------------------------------------------------------16-14-16-14fullbend-14|
A|-----------------------------------------------------------------------------------|
E|-----------------------------------------------------------------------------------|

E|-----------------------------------------------------------------------------------|
B|--7-8-7----------------------------------------------------------------------------|
G|----------9-7-9fullbend-----7-9-7--------------------------------------------------|
D|-----------------------------------9-7-9-7-----------------------------------------|
A|-----------------------------------------------------------------------------------|
E|-----------------------------------------------------------------------------------|
Composición de Juninho Afram / PG
Colaboración y revisión:
  • Fabio Vale
171 vistas
    • ½ Tono
    • A
    • Bb
    • B
    • C
    • Db
    • D
    • Eb
    • E
    • F
    • F#
    • G
    • Ab
  • Agregar a la lista

    0 comentarios

    Ver todos los comentarios
    00:00 / 00:00
    Outros vídeos desta música
    Repetir Calidad Automático
    Outros vídeos desta música
    00:00 / 00:00
    Automático
    OK