Cifra Club

Indiferença

Oficina G3

Cifrado: Principal (guitarra y guitarra eléctrica)
tono: C
Intro 7x:

E|----------x-x-------x-x--------------x-x---------------|
B|----------x-x-------x-x--8/9--------x-x---------------|
G|-----7-9--x-x--7-9--x-x---------7-9--x-x---------------|  (7x)
D|----------x-x-------x-x--5/6---------x-x---------------|    
A|-----5-7--x-x--5-7--x-x---------5-7--x-x---7-5---------|
E|-0--------x-x-------x-x------0-------x-x-------7-5-3---|   

( E7(9+)  F7(9+)  E7(9+)  D#7(9+) )

E7(9+)   F7(9+)  E7(9+)          D#7(9+)
Um farol,        esquinas da cidade
E7(9+)    F7(9+) E7(9+)        D#7(9+)
A infância      na marginalidade
E7(9+)    F7(9+) E7(9+)         D#7(9+)
Sem família,      nas ruas a viver
E7(9+)         F7(9+) E7(9+)         D#7(9+)
Mãos estendidas      esperando receber
 C7(9)      B7(9)                     E7(9+)
Vidros fechados gestos mudos do outro lado (2x)

Interlúdio:

E|------------------------------------------------------| 
B|------------------------------------------------------|
G|------------------------------------------------------|
D|---------2------3--------2-3--------------------------|    
A|---------0------1--------0-1--------------------------|
E|-0-0-0-----0-0-----0-0--------------------------------|

E7(9+)         F7(9+)  E7(9+)           D#7(9+)
Troca de olhares      indiferença rejeição
E7(9+)         F7(9+)  E7(9+)       C7(9)
Mais um número       deste mundo cão
 C7(9)          B7(9)                     E7(9+)    (intro 1x)
Vidros fechados gestos mudos do outro lado
 C7(9)         B7(9)
Vidros fechados...        (intro 4x)
E7(9+)            F7(9+) E7(9+)         D#7(9+)
Os vícios e o crack,    constantes ilusões
E7(9+)         F7(9+) E7(9+)            D#7(9+)
De vidas banidas      em meio as multidões
E7(9+)            F7(9+) E7(9+)            D#7(9+)
A lei do mais forte,    é o que rola pra viver
E7(9+)            F7(9+) E7(9+)
Brincado com a morte    sem ter nada a perder
 C7(9)          B7(9)                    E7(9+)
Vidros fechados gestos mudos do outro lado 

E|------------------------------------------------------|
B|------------------------------------------------------|
G|------------------------------------------------------|
D|---------2------3--------2-3--------------------------|    
A|---------0------1--------0-1--------------------------|
E|-0-0-0-----0-0-----0-0--------------------------------|

 C7(9)         B7(9)
Vidros fechados...

Riff:

E|----------------------------------------|
B|----------------------------------------|
G|--5-7-8-9-------8-10-11-12--------------|
D|-7-----------10-------------------------| 2x
A|--3-5-6-7-------6--8--9-10--------------|
E|-5------------8-------------------------|    

Am7           D7(9+)
Abra o ouvido do seu coração
 Bm7       E7(9+)
Amor gera atitude
Am7           D7(9+)
Comece a agir chega de falar
Bm7                         E7(9)
Só com palavras não se pode Mudar (2x)

Solo: intro 4x C7(9)  B7(9)

E|-------------------------------------------------------------|--------------------------------------|
B|-15b16------------------------------15--15--15--15-----------|----------------15--------------------|
G|-14b15-14p12-14-12b13-------12-12---12--12--12--12--12-------|-------12-14p16----15p14-12-14--12-14-|
D|----------------------12-14----------------------------12-14-|-12-14--------------------------------|
A|-------------------------------------------------------------|--------------------------------------|
E|-------------------------------------------------------------|--------------------------------------|

E|---------------------------|------------------------------------------------------------------------|
B|---------------------------|-------------------------------------12---------------------------------|
G|---7---9-12-9-10p9-7---7---|-------------12----------12-13-14-15----15-14-12----12h14-12----12--14--|
D|-9---9---------------9---7-|----12-13-14----12-13-14-------------------------14----------14---14----|
A|---------------------------|-12---------------------------------------------------------------------|
E|---------------------------|------------------------------------------------------------------------|

E|--------------------------------12--------------------------------------12--------------------------|
B|----------15-----------------------12-12-15b17-15b17-----------------12----15-12----12----12--------|
G|-12-14b16----14b15^12-14-12-14-----------------------14b15^14--14b16-------------15----15----15-14--|
D|----------------------------------------------------------------------------------------------------|
A|----------------------------------------------------------------------------------------------------|
E|----------------------------------------------------------------------------------------------------|

E|----------------|--12b14-10b12-7b9---5b7--7b9---10b12-12b14-15b17-|-12b14--15b16----15b16---15b14---|
B|----------------|--15b17-13b15-10b12-8b10-10b12-13b15-15b17-18b20-|-15b17--15b16----15b16---15b14---|
G|-12-------14-12-|-------------------------------------------------|--------14b15-12-14b15---14b15-12|
D|----14-12-------|-------------------------------------------------|---------------------------------|
A|----------------|-------------------------------------------------|---------------------------------|
E|----------------|-------------------------------------------------|---------------------------------|

E|-15b16-15-15--------12b14--15----15b17--12--------------------------------------------------|
B|-15b16-15-15--17-12-15b17--15-12-15b17-----15-14-13-12----12--------------------------------|
G|-15b14-12-14--16-12------------------------------------15----15-14-12-------14----12h13-----|
D|----------------------------------------------------------------------14-12----14-------14~-|
A|--------------------------------------------------------------------------------------------|
E|--------------------------------------------------------------------------------------------|

Interludio: C7(9)  B7(9)

(volta no riff e na ultima parte)
Compositor no encontrado.
401 vistas
    • ½ Tono
    • A
    • Bb
    • B
    • C
    • Db
    • D
    • Eb
    • E
    • F
    • F#
    • G
    • Ab
  • Agregar a la lista

    0 comentarios

    Ver todos los comentarios
    00:00 / 00:00
    Otros videos de esta canción
    Repetir Calidad Automático
    Otros videos de esta canción
    00:00 / 00:00
    Automático
    OK