Cifra Club

Momentos de Ternura

Oficina G3

Cifrado: Principal (guitarra y guitarra eléctrica)
tono: C
Intro: Em D9 C G Em D9 C

 G                   Em                            Cm
 Mas um ano que se passou, tantas coisas pra se lembrar
                                F
algo especial ele deu, só pra você cuidar.
 G                          Em                           Cm
 Espalhar sua palavra em canções, que fazem nossa vida mudar
                                       F
a semente que se plantou, Deus sempre vai lembrar.
             Em       D9           C              G                 Em  D9
 Ele quer te ter mais perto, te contar os seus mistérios como pai e sua filha
  C            G
vivendo a cada dia.
             Em       D9           C              G                 Em  D9
 Ele quer te ter mais perto, te contar os seus mistérios como pai e sua filha
  C
vivendo a cada dia.
 G                     Em                         Cm
 Ele conhece o seu coração, o que você sempre sonhou
                                     F
esteve sempre junto a você no seu silêncio e dor.
 G                    Em                          Cm
 Vem de dentro uma canção, fruto desse amor se colheu,
                                          F
histórias tão distantes juntou, eterna amizade nasceu
             Em       D9           C              G                 Em  D9
 Ele quer te ter mais perto, te contar os seus mistérios como pai e sua filha
  C            G
vivendo a cada dia.
             Em       D9           C              G                 Em  D9
 Ele quer te ter mais perto, te contar os seus mistérios como pai e sua filha
  C
vivendo a cada dia.

Solo: Em D9 C G Em D9 C G Em D9 C G Em D9 Cm

|-----------------------------------------------------------------|
|--12b12---8-------------10h12-12s13--13s15--15p12----------------|
|------------9--11s12-11------------------------------------------|
|-----------------------------------------------------------------|
|-----------------------------------------------------------------|
|-----------------------------------------------------------------|

|-----------------------------------------------------------------|
|--12b12---8------------------------------------------------------|
|------------9--11s12-11--7-7s9-9s11--12--------------------------|
|-----------------------------------------------------------------|
|-----------------------------------------------------------------|
|-----------------------------------------------------------------|

|-----------------------------------------------------------------|
|--12b12---8-------------10h12-12s13--13s15--12-------------------|
|------------9--11s12-11------------------------------------------|
|-----------------------------------------------------------------|
|-----------------------------------------------------------------|
|-----------------------------------------------------------------|

|-----------------------------------------------------------------|
|--12b12---8--------------13s15-----------13-15-15b---------------|
|------------9--11s12-11--------16--12-14-------------------------|
|-----------------------------------------------------------------|
|-----------------------------------------------------------------|
|-----------------------------------------------------------------|
00:00 / 00:00
Otros videos de esta canción
Repetir
Otros videos de esta canción
Composición de Juninho Afram
Colaboración y revisión:
  • GIldevan Pereira
13 vistas
    • ½ Tono
    • A
    • Bb
    • B
    • C
    • Db
    • D
    • Eb
    • E
    • F
    • F#
    • G
    • Ab
  • Agregar a la lista

    0 comentarios

    Ver todos los comentarios
    00:00 / 00:00
    OK