Cifra Club

Não Temas

Oficina G3

Cifrado: Principal (guitarra y guitarra eléctrica)
Selo Cifra Club: esta cifra foi revisada para atender aos critérios oficiais da nossa Equipe de Qualidade.
tono: Bb
Intro:

E|------------------|--------------------|
B|------------------|--------------------|
G|------------------|--------------------|
D|------------------|--------------------|
A|------------------|--8------8----------|
E|------------------|--5------6----------|
 
|-----------------------------------------|--------------------|
|-----------------------------------------|--------------------|
|-----------------------------------------|--------------------|
|---------10-10-------------10-10---------|--------------------|
|-----8-8-------8-8-----8-8-------8-8-----|--6------6----------|
|-6-6---------------6-6-------------------|--3------4----------|
                          T 
|-----------------8h11s16h20s16h11--------------------|--------------------|
|---------------9------------------13-----------------|--------------------|
|-------------8-----------------------13--------------|--------------------|
|----------10----------------------------13-----------|--------------------|
|-----6-11----------------------------------15-11-----|--8------8----------|
|-4-8-------------------------------------------------|--5------6----------|

|-----------------------------------------|--------------------|
|-----------------------------------------|--------------------|
|-----------------------------------------|--------------------|
|---------10-10---------------10-10-------|--------------------|
|-----8-8-------8-8-----8-8---------8-8---|--6------6----------|
|-6-6---------------6-6-------------------|--3------4----------|

|---------------------------------||---------------------|
|---------------------------------||---------------------|
|---------------------------------||*--------------------|
|-----------------3---------------||*--------------------|
|---------3-4-5-6---6-5-4-3-------||---8------8----------|
|-4-5-6-7-------------------7-6-5-||---5------6----------|

|-------------------------------------|--------------------|
|-------------------------------------|--------------------|
|-------------------------------------|--------------------|
|---------10-10-------------10-10-----|--------------------|
|-----8-8-------8-8-----8-8-------8-8-|--6------6----------|
|-6-6---------------6-6---------------|--3------4----------|

|----------------------------------||-----------------------|
|----------------------------------||-----------------------|
|---------------------------------*||-----------------------|
|-----------------3---------------*||-----------------------|
|---------3-4-5-6---6-5-4-3--------||----6--x--6--x--8------|
|-4-5-6-7-------------------7-6-5--||----4--x--4--x--6------|
                                                    
|-------------------------|-------------------------|
|-------------------------|-------------------------|
|-------------------------|-------------------------|
|-------1--------3--------|-5--------6-----6-----6--|
|-3--3--3--3--3--3--3--3--|-3--3--3--3--3--3--3--3--|
|-------------------------|-------------------------|

|-------------------------|-------------------------|--------------------|
|-------------------------|-------------------------|--------------------|
|-------------------------|-------------------------|--------------------|
|----5--5--------3-----3--|----1--1--------3-----3--|----5--5------------|
|-3--3--3--3--3--3--3--3--|-3--3--3--3--3--1--1--1--|-3--3--3------------|
|-------------------------|-------------------------|--------------------|


C5              G#5              A#5  D#5 C5 
Lutar ou fugir, qual tem sido a sua    opção
                    G#5             A#5          
Sonhar ou desistir, o que tem feito do teu coração 
G#5        A#5     G5          G#5          A#5  
Problemas, o medo, algemas, te prendendo
G#5                   A#5 
Não se esqueça da promessa
       G/B         C5
Que um dia lhe foi feita

F/A A#        Gm G# 
     Não temas,   estarei sempre contigo    
F/A A#        Gm G#                                                 
    Não temas,     sempre estou contigo


Solo: (01:49)

   Cm                                Fm                                                                           
||-----------------8-11-15-11-------|-20-16----------16-18-20-18-16-15-18-|
||---------------8------------13----|-------18----18----------------------|
||*------------8-----------------12-|----------17-------------------------|
||*---------10----------------------|-------------------------------------|
||-------10-------------------------|-------------------------------------|
||--8-11----------------------------|-------------------------------------|

  D#                                    Bb
|-18-15----------15-18-15-------------|-------------10-13-10-6----------||
|-------16----16----------16----------|----------11------------6--------||
|----------15----------------15-------|-------10-----------------7-----*||
|-------------------------------17----|----12----------------------8---*||
|----------------------------------18-|-13---------------------------8--||
|-------------------------------------|---------------------------------||
                                                                           
|-------------------------------------|
|-------------------------------------|
|-------------------------------------|
|-------------------------------------|
|----------10-11-13----------11-13-15-|
|-10-11-13----------11-13-15----------|
                                                                              
|-------------------------------------|----------15-16-18-20-18-16----------|
|-------------------------------------|-15-16-18-------------------20-18-16-|
|----------12-13-15----------13-15-17-|-------------------------------------|-
|-12-13-15----------13-15-17----------|-------------------------------------|
|-------------------------------------|-------------------------------------|
|-------------------------------------|-------------------------------------|
                                                                              
|-18-16-15----------------------------|-------------------------------------|
|----------18-16-15-------------------|-------------------------------------|
|-------------------17-15-13----------|-------------------------------------|
|----------------------------17-15-13-|-------------------------------------|
|-------------------------------------|-15-13-11----------13-11-10----------|
|-------------------------------------|----------15-13-11----------13-11-10-|

|-------------------------------------|-------------------------------------|
|-------------------------------------|-------------------------------------|
|-------------------------------------|----------10-12-13-------------------|
|-------------------------------------|-10-12-13-------------------10-12-13-|
|----------10-11-13----------10-11-13-|-------------------10-11-13----------|
|-10-11-13----------10-11-13----------|-------------------------------------|
                                                                      
|-----------------------|----------|--------------------------------|
|----------11-13-15-----|----------|--------------------------------|
|-10-12-13--------------|----------|-12-10-8------------------------|
|-----------------------|----------|---------12-10-8----------------|
|-----------------------|----------|-----------------11-10-8-6-8-10-|
|-----------------------|----------|--------------------------------|
                                                                          
|---------------------------|---------------------------||
|---------------------------|---------------------------||
|--------7-8-10-8-7-5-------|---------------------------||
|-6-8-10--------------8-6-5-|-------8-6-5---------------||
|---------------------------|-8-6-5-------8-6-5---------||
|---------------------------|-------------------8-6-4~~-||

G#5        A#5     G5          G#5          A#5  
Problemas, o medo, algemas, te prendendo
G#5                   A#5 
Não se esqueça da promessa
       G/B         C5
Que um dia lhe foi feita

F/A A#        Gm G# 
     Não temas,   estarei sempre contigo    
F/A A#        Gm G#                                                 
    Não temas,     sempre estou contigo

Obs: fazer os acordes com "power chord"
Otros videos de esta canción
    39.992 exhibiciones
      • ½ Tono
      • A
      • Bb
      • B
      • C
      • Db
      • D
      • Eb
      • E
      • F
      • F#
      • G
      • Ab
    • Agregar a la lista

    Afinación de cifrado

    Afinador online

      OK