Cifra Club

Naves Imperiais

Oficina G3

Cifrado: Principal (guitarra y guitarra eléctrica)
tono: D
[Intro] Bm  Em  G7M  A

E|-----x-9-10-12-9------------------------------------------------------|
B|---x-------------10--------------------------------10p7-------9/11~~--|
G|-x------------------9-7-6-7/9~~-------------6-7-9-------9-7-9---------|
D|-------------------------------------7-8-9----------------------------|
A|----------------------------------------------------------------------|
E|----------------------------------------------------------------------|

E|------------14-12-10-9-12-10-9-10p9--------------------9h-10-p9-------|
B|------10-12-------------------------10------------8/10-----------10~~-|
G|-(11)----------------------------------9-11/12------------------------|
D|----------------------------------------------------------------------|
A|----------------------------------------------------------------------|
E|----------------------------------------------------------------------|

 Bm
Somos como naves imperiais
   G                A
A serviço do nosso rei
 Bm
Vasos de guerra, onde só há ida
          G
E não há tempo para olhar
    A
Voltar para trás

 Bm                               G   A
Somos jovens que crêem no Deus vivo
  Em                  D           A
Que enviou Seu filho para nos salvar
      Bm  Em      G7M  A
Aleluia,  aa  aleluia  a  a

 Em                        D
Nosso comandante é Jesus Cristo
            A
Filho de Deus
      Bm  Em      G7M  A
Aleluia,  aa  aleluia  a  a

 Em                        D
Nosso comandante é Jesus Cristo
            A
Filho de Deus
      Bm  Em      G7M  A
Aleluia,  aa  aleluia  a  a

( Bm  Em  G7M  A )
( Bm  Em  G7M  A )

 Bm
Somos como naves imperiais
   G                A
A serviço do nosso rei
 Bm
Vasos de guerra, onde só há ida
          G
E não há tempo para olhar
    A
Voltar para trás

 Bm                               G   A
Somos jovens que crêem no Deus vivo
  Em                  D           A
Que enviou Seu filho para nos salvar
      Bm  Em      G7M  A
Aleluia,  aa  aleluia  a  a

 Em                        D
Nosso comandante é Jesus Cristo
            A
Filho de Deus
      Bm  Em      G7M  A
Aleluia,  aa  aleluia  a  a

 Em                        D
Nosso comandante é Jesus Cristo
            A
Filho de Deus
      Bm  Em      G7M  A
Aleluia,  aa  aleluia  a  a

 Em                        D
Nosso comandante é Jesus Cristo
            A
Filho de Deus

[Solo] Em  D  A
       Em  D  A
       Em  D  A
       Em  D  A 

      Bm  Em      G7M  A
Aleluia,  aa  aleluia  a  a

 Em                        D
Nosso comandante é Jesus Cristo
            A
Filho de Deus
      Bm  Em      G7M  A
Aleluia,  aa  aleluia  a  a

 Em                        D
Nosso comandante é Jesus Cristo
            A
Filho de Deus
      Bm  Em      G7M  A
Aleluia,  aa  aleluia  a  a

( Bm  Em  G7M  A )
00:00 / 00:00
Otros videos de esta canción
Repetir
Otros videos de esta canción
Composición de Túlio Régis
657 vistas
    • ½ Tono
    • A
    • Bb
    • B
    • C
    • Db
    • D
    • Eb
    • E
    • F
    • F#
    • G
    • Ab
  • Agregar a la lista

    0 comentarios

    Ver todos los comentarios
    00:00 / 00:00
    OK