Cifra Club

People Get Ready

Oficina G3

Acordes: Principal
reproducciones 157
Tono: D
Intro 2x: D  Bm  G  D


E|------------------------------------|----------------------------|
B|------------------------------------|--12--10--------------------|
G|--11-12r11-----------7----9--11r9-11|--------11-9--7--7--7b9--7--|
D|----------12--11---9----9-----------|----------------7--7--------|
A|------------------------------------|----------------------------|
E|------------------------------------|----------------------------|


D          Bm
People get ready
            G      D
There's a train a-coming
     D            Bm
You don't need no baggage
          G      D
You just get on board
        D       Bm
All you need is faith
             G      D            A/C#
To hear the diesels humming
 Bm           Em
don't need no ticket
           G       D
You just thank the Lord

Solo: D Bm G D


E|------------17~~~~|
B|--15----15--------|
G|-----14-----------|  (2x)
D|------------------|
A|------------------|
E|------------------|


D          Bm
People get ready
          G       D
For the train to Jordan
D          Bm
Picking up passengers
      G        D
From coast to coast
D            Bm
Faith is the key
          G         D             A/C#
Open the doors and board them
Bm               Em
There's room for all
           G         D
Among the loved the most

Solo:  D  Bm  G  D (2x)
       D  Bm  G  D  A/C#  Bm  Em  G  D
       D  Bm  G  D (2x)

D             Bm
There aint no room
         G       D
For the hopeless sinner
          D            Bm
Who would hurt mankind all
         G       D
Just to save his own
      D       Bm
Have pity on those
       G           D          A/C#
Whose chances are thinner
      Bm                Em
Cause there's no hiding place
         G           D
From the kingdoms throne
    D          Bm
So People get ready
            G      D
There's a train a-coming
     D            Bm
You don't need no baggage
          G      D
You just get on board
        D       Bm
All you need is faith
             G      D            A/C#
To hear the diesels humming
 Bm           Em
don't need no ticket
               G             D
You just, you just thank the Lord

( D  Bm  G  D )

( D#  Cm  G#  D# ) (4x)

( F#m  D# )

( D#  Cm  G#  D# ) (2x)
Acordes para:
    Colaboración y revision:

    0 comentarios

      mostrar mas comentarios

      ¿Conseguiste tocar?

      30tocaron0aún no

      ¡Grave un vídeo tocando People Get Ready y envie para nosotros!

      00:00 / 00:00
      outros vídeos desta música
      repetirqualidadeautomática
      Outro vídeos desta música
        00:00 / 00:00
        automática
        OK