Cifra Club

Quem

Oficina G3

Cifrado: Versão 2 (guitarra y guitarra eléctrica)
Acompaña nuestras novedades de Cifra Club en español.
¡Sigue nuestro perfil en Instagram!
tono: F# (con acordes en la forma de F) Capotraste en 1ª casa
 Intro: Dm  C9  A#  F  C  Dm
D|--------------------------------|
A|--------------------------------|
F|-----0-----0-----0-----0--------|
C|---2-----0-----0-----0----------| (4x)
G|-0-----2-----3-----5-----3-2-0--|
D|--------------------------------|

Riff 2:
      Dm                   C9
D|------7----------------------0---|
A|--------7/8\7--------------1---1-|
F|-----9--------------7----0-------|
C|---9----------7---7--------------|
G|-7--------------5------3---------|
D|---------------------------------|

Riff 3:
     Dm                     C9
D|-------7-----7----------------0--|
A|---------8----8-------------1---1|
F|-----9-----9----------7---0------|
C|---9----------------7------------|
G|-7----------------5-----3--------|
D|---------------------------------|

(Riff 2)
Tantas coisas prá pensar,
(Riff 3)
tantas coisas prá lembrar
(Riff 2)
Algumas coisa pra sorrir,
(Riff 3)
muitas outras prá chorar

Dm         c            Dm
Quem vai ouvir, a minha voz?
Dm           c              Bb
Quem vai enxugar, as minhas lágrimas?
F  c
Quem?

(Riff 1 - 2x)

(Riff 2)
Tantas coisas prá vencer,
(Riff 3)
tantas coisas prá esquecer
(Riff 2)
Não há forças pra lutar,
(Riff 3)
falta coragem pra encarar
Solo de Violão:
      C9
D|-----3-----2-----0--3--2---------------------|--11/12--11--9/11--9--7/9--7--5/7--5--4/5---|
A|---------3-----3-----------3--3-3/5-3--5-3---|--------------------------------------------|
F|-------0-----0-------------------------------|--------------------------------------------|
C|---------------------------------------------|--------------------------------------------|
G|--3-----------------3--3------3-3/5-3--5-3---|--------------------------------------------|
D|---------------------------------------------|--------------------------------------------|
                                  C9
D|---7--5--4-5--7-7/9--7--5--|--3---3---2---0----...------|
A|---------------------------|----3-------3------...------|
F|---------------------------|-------------------...------|
C|---------------------------|-------------------...------|
G|---------------------------|-------------------...------|
D|---------------------------|--3-------3--------...------|
Composición de Juninho Afram
Colaboración y revisión:
70 vistas
    • ½ Tono
    • A
    • Bb
    • B
    • C
    • Db
    • D
    • Eb
    • E
    • F
    • F#
    • G
    • Ab
  • Agregar a la lista

    0 comentarios

    Ver todos los comentarios
    00:00 / 00:00
    Outros vídeos desta música
    Repetir Calidad Automático
    Outros vídeos desta música
    00:00 / 00:00
    Automático
    OK