Cifra Club

We Are The Archers

Oh, Sleeper

Cifrado: Principal (guitarra y guitarra eléctrica)
tono: E
Great song from a great band.
I barely got anything done, but there's more to come.

Tuning: Drop C

Alrighty, I'm sorry for spelling the name of the song wrong before, but here some more of it.

Thank you,

Mikey


d|-------------------3*3*3*3*3*Q-2-|
a|--------1515-------3*3*3*3*3*U-2-|
f|--------1818-------3*3*3*3*3*I-2-|  (8 TIMES) ^^The pinch thing changes from
c|-0-8--0------1-0-1-3*3*3*3*3*C-2-|   5 times to 4 times every othertime.
g|-0-12-0------1-0-1-3*3*3*3*3*K-2-|
c|-0----0------1-0-1-3*3*3*3*3*!-2-|
-
d|-------------3*3*3*3*3*-----------------3*3*3*
a|-------------3*3*3*3*3*-----------------3*3*3*
f|-------------3*3*3*3*3*-----------------3*3*3*
c|-2-3-2-3-2-3-3*3*3*3*3*-0-1-1-2-2-3-2-3-3*3*3*
g|-2-3-2-3-2-3-3*3*3*3*3*-0-1-1-2-2-3-2-3-3*3*3*
c|-2-3-2-3-2-3-3*3*3*3*3*-0-1-1-2-2-3-2-3-3*3*3*

Alrighty, I'm sorry for spelling the name of the song wrong before, but here some more of it.

d|---------------------|
a|---------------------|
f|---------------------|
c|-8--8----8-8-8-8-----| (2 times)(figure out the pattern, it's not hard)
g|-12-12---12121212----|
c|---------------------|

d|-----------3*3*3*
a|-----------3*3*3*
f|-----------3*3*3*
c|-8>1-2-1-2-3*3*3*
g|-8>1-2-1-2-3*3*3*
c|-8>1-2-1-2-3*3*3*

d|---------------------|
a|---------------------|
f|---------------------|
c|-8--8--8-8-8-8-------|   (4 times)  (figure out the pattern, it's not hard)
g|-12-12-12121212------|
c|---------------------|

d|------------------------------------------------------------|
a|------------------------------------------------------------|
f|------------------------------------------------------------|
f|------------------------------------------------------------|
c|>0-8--8-8-8--0-8-8--0-0-0-8--8-8-8--0-8-8-------------------|  (2 Times)
g|>0-12-121212-0-1212-0-0-0-12-121212-0-1212------------------|
c|>0-----------0------0-0-0-----------0-------0-1-2-3---------|

d|----------------------------------------------------------|
a|----------------------------------------------------------|
f|---8--8------8----8--------------8--8------8--------------|
c|-0-12-12-0-0-12-0-12-00000000--0-12-12-0-0-12-0~-00000000-|    (2 Times)
g|-0-------0-0----0----00000000--0-------0-0----0~-00000000-|
c|-0-------0-0----0----00000000--0-------0-0----0~-00000000-|
                       ^^^^^^^^                    ^^^^^^^^

d|-------------|
a|-------------|
f|-------------|
c|-0~------10~-|
g|-0~--10~-----|
c|-0~----------|

d|-------------------3*3*3*3*3*Q-2-|
a|--------1515-------3*3*3*3*3*U-2-|
f|--------1818-------3*3*3*3*3*I-2-|  (8 TIMES) ^^The pinch thing changes from
c|-0-8--0------1-0-1-3*3*3*3*3*C-2-|   5 times to 4 times every othertime.
g|-0-12-0------1-0-1-3*3*3*3*3*K-2-|
c|-0----0------1-0-1-3*3*3*3*3*!-2-|

that's it for today, thanks guys

00:00 / 00:00
Otros videos de esta canción
Repetir
Otros videos de esta canción
Composición de Micah Kinard / Oh, Sleeper
14 vistas
    • ½ Tono
    • A
    • Bb
    • B
    • C
    • Db
    • D
    • Eb
    • E
    • F
    • F#
    • G
    • Ab
  • Agregar a la lista

    0 comentarios

    Ver todos los comentarios

    ¿Lograste tocar?

    0 Tocaron 0 Aún no

    ¡Graba un video tocando We Are The Archers y envíanoslo!

    00:00 / 00:00
    OK