Cifra Club

Brutal

Olivia Rodrigo

Cifrado: Principal (guitarra y guitarra eléctrica)
tono: C#m
(I want it to be, like, messy)

   B5       A#5 A5       
E|------------------------------------------|
B|------------------------------------------|
G|------------------------------------------|
D|------------------------------------------|
A|-9-9-9-9-9-8-7----------------------------|
E|-7-7-7-7-7-6-5----------------------------|

   B5       A#5 A5 B5       A#5 A5    
E|------------------------------------------|
B|------------------------------------------|
G|------------------------------------------|
D|------------------------------------------|
A|-9-9-9-9-9-8-7---9-9-9-9-9-8-7------------|
E|-7-7-7-7-7-6-5---7-7-7-7-7-6-5------------|

 B5         A#5 A5 B5       A#5 A5    
E|------------------------------------------|
B|------------------------------------------|
G|------------------------------------------|
D|------------------------------------------|
A|-9-9-9-9-9-8-7---9-9-9-9-9-8-7------------|
E|-7-7-7-7-7-6-5---7-7-7-7-7-6-5------------|

   A5              A5
E|------------------------------------------|
B|------------------------------------------|
G|------------------------------------------|
D|------------------------------------------|
A|-7-7-7-7-7-7-7---7-7-7-7-7-7-7------------|
E|-5-5-5-5-5-5-5---5-5-5-5-5-5-5------------|

   G#5             G5      F#5
E|------------------------------------------|
B|------------------------------------------|
G|------------------------------------------|
D|------------------------------------------|
A|-6-6-6-6-6-6-6---5-5-5-5-4-4-4------------|
E|-4-4-4-4-4-4-4---3-3-3-3-2-2-2------------|

B5             A#5  A5
I'm so insecure I  think
 B5                 A#5  A5
That I'll die before I  drink
    B5               A#5     A5
And I'm so caught up in the news
   B5                    A#5  A5
Of who likes me and who hates you
    A5
And I'm so tired that I might
 A5
Quit my job, start a new life
     G#5
And they'd all be so disappointed
     G5          F#5
Cuz who am I, if not exploited?
    B5              A#5  A5
And I'm so sick of seventeen
 B5                 A#5     A5
Where's my fuckin' teenage dream?
    B5              A#5       A5
If someone tells me one more time
  B5                     A#5  A5
"Enjoy your youth", I'm gonna cry
    A5
And I don't stick up for myself
     A5
I'm anxious and nothing can help
   G#5
And I wish I'd done this before
    G5             F#5
And I wish people likеd me more

Refrão

   E5                E5
E|------------------------------------------|
B|------------------------------------------|
G|------------------------------------------|
D|-9-9-9-9-9-9-9-9---9-9-9-9-9-9-9-9--------|
A|-7-7-7-7-7-7-7-7---7-7-7-7-7-7-7-7--------|
E|------------------------------------------|

   B5                B5        A#5
E|------------------------------------------|
B|------------------------------------------|
G|------------------------------------------|
D|------------------------------------------|
A|-9-9-9-9-9-9-9-9---9-9-9-9-9-8-8-8--------|
E|-7-7-7-7-7-7-7-7---7-7-7-7-7-6-6-6--------|

   A5                E5
E|------------------------------------------|
B|------------------------------------------|
G|------------------------------------------|
D|-------------------9-9-9-9-9-9-9-9--------|
A|-7-7-7-7-7-7-7-7---7-7-7-7-7-7-7-7--------|
E|-5-5-5-5-5-5-5-5--------------------------|

  B5                 B5      
E|------------------------------------------|
B|------------------------------------------|
G|------------------------------------------|
D|------------------------------------------|
A|-9-9-9-9-9-9-9-9---9----------------------|
E|-7-7-7-7-7-7-7-7---7----------------------|

E5
All I did was try my best
E5
This thе kinda thanks I get?
B5                              A#5
Unrelentlessly upset  (huh, huh, huh)

(huh, huh, huh)
     A5
They say "These are the golden years"
      E5
But I wish I could disappear
B5
Ego crush is so severe
B5  
God, it's brutal out here

Ponte

 B5         A#5 A5     
E|------------------------------------------|
B|------------------------------------------|
G|------------------------------------------|
D|------------------------------------------|
A|-9-9-9-9-9-8-7----------------------------|
E|-7-7-7-7-7-6-5----------------------------|

  B5        A#5 A5 B5       A#5 A5    
E|------------------------------------------|
B|------------------------------------------|
G|------------------------------------------|
D|------------------------------------------|
A|-9-9-9-9-9-8-7---9-9-9-9-9-8-7------------|
E|-7-7-7-7-7-6-5---7-7-7-7-7-6-5------------|

  B5        A#5 A5 B5       A#5 A5         
E|------------------------------------------|
B|------------------------------------------|
G|------------------------------------------|
D|------------------------------------------|
A|-9-9-9-9-9-8-7---9-9-9-9-9-8-7------------|
E|-7-7-7-7-7-6-5---7-7-7-7-7-6-5------------|

   A5              A5
E|------------------------------------------|
B|------------------------------------------|
G|------------------------------------------|
D|------------------------------------------|
A|-7-7-7-7-7-7-7---7-7-7-7-7-7-7------------|
E|-5-5-5-5-5-5-5---5-5-5-5-5-5-5------------|

   G#5             G5      F#5
E|------------------------------------------|
B|------------------------------------------|
G|------------------------------------------|
D|------------------------------------------|
A|-6-6-6-6-6-6-6---5-5-5-5-4-4-4------------|
E|-4-4-4-4-4-4-4---3-3-3-3-2-2-2------------|(tudo x2)

B5                  A#5  A5
I feel like no one wants me
    B5                 A#5   A5
And I hate the way I'm perceived
  B5            A#5   A5
I only have two real friends
     B5           A#5     A5
And lately I'm a nervous wreck
    A5
Cuz I love people I don't like
    A5
And I hate every song I write
   G#5
And I'm not cool and I'm not smart
    G5            F#5
And I can't even parallel park


Refrão

   E5                E5
E|------------------------------------------|
B|------------------------------------------|
G|------------------------------------------|
D|-9-9-9-9-9-9-9-9---9-9-9-9-9-9-9-9--------|
A|-7-7-7-7-7-7-7-7---7-7-7-7-7-7-7-7--------|
E|------------------------------------------|

   B5                B5        A#5
E|------------------------------------------|
B|------------------------------------------|
G|------------------------------------------|
D|------------------------------------------|
A|-9-9-9-9-9-9-9-9---9-9-9-9-9-8-8-8--------|
E|-7-7-7-7-7-7-7-7---7-7-7-7-7-6-6-6--------|

   A5                E5
E|------------------------------------------|
B|------------------------------------------|
G|------------------------------------------|
D|-------------------9-9-9-9-9-9-9-9--------|
A|-7-7-7-7-7-7-7-7---7-7-7-7-7-7-7-7--------|
E|-5-5-5-5-5-5-5-5--------------------------|

  B5                 B5      
E|------------------------------------------|
B|------------------------------------------|
G|------------------------------------------|
D|------------------------------------------|
A|-9-9-9-9-9-9-9-9---9----------------------|
E|-7-7-7-7-7-7-7-7---7----------------------|

E5
All I did was try my best
E5
This thе kinda thanks I get?
B5                              A#5
Unrelentlessly upset  (huh, huh, huh)

(huh, huh, huh)
     A5
They say "These are the golden years"
      E5
But I wish I could disappear
B5
Ego crush is so severe
B5  
God, it's brutal out here

Ponte

   B5          
E|------------------------------------------|
B|------------------------------------------|
G|------------------------------------------|
D|------------------------------------------|
A|-9-9-9-9-9-8-7----------------------------|
E|-7-7-7-7-7-6-5----------------------------|

(She's having a really good time)

   E5    G5    B5    A5   E/G#   G5
E|------------------------------------------|
B|------------------------------------------|
G|------------------------------------------|
D|-9----------------------------------------|
A|-7-----5-----9-----7-----7-----5----------|
E|-------3-----7-----5-----4-----3----------|

E5           G5          B5    A5
Got a broken ego, broken heart
E/G#               G5
God, I don't even know where to start
00:00 / 00:00
Otros videos de esta canción
Repetir
Otros videos de esta canción
Composición de Dan Nigro / Olivia Rodrigo
Colaboración y revisión:
  • Yasminlg
  • Leticianicolino
1.068 vistas
    • ½ Tono
    • Am
    • Bbm
    • Bm
    • Cm
    • C#m
    • Dm
    • Ebm
    • Em
    • Fm
    • F#m
    • Gm
    • G#m
  • Agregar a la lista

    0 comentarios

    Ver todos los comentarios

    ¿Lograste tocar?

    6 Tocaron 1 Aún no

    ¡Graba un video tocando Brutal y envíanoslo!

    00:00 / 00:00
    OK