Cifra Club

Aprenda

Cheerleader

Omi

Tablatura: Principal (guitarra)
tono: E
Intro 4x: E  B  A

Solo Intro:

E|---0-0----0-0--------0-0-4-2---0--------------------|
B|-2------2-----0----2---------2----------------------|
G|----------------1-----------------------------------|
D|----------------------------------------------------|
A|----------------------------------------------------|
E|----------------------------------------------------|

Primeira Parte:

        E
When I need motivation
B           A             E
  My one solution is my queen
                        B        A
'Cause she' stay strong   yeah, yeah
       E
She is always in my corner
        B           A
Right there when I wanna
          E
All these other girls are tempting
        B                  A
But I'm empty when you're gone

And they say

Pré-refrão:

E         A
  Do you need me?
 B                 A
Do you think I'm pretty?
      E                   A
Do I make you feel like cheating?
          B       A
I'm like no, not really 'cause

Dedilhado Pré-refrão:

Parte 1

    E        A        B        A
E|-----0----------0------2------------0-----|
B|-------0------2----------4--------2-------|
G|---1--------2--------4----------2---------|
D|------------------------------------------|
A|----------0--------2--------0-------------|
E|-0----------------------------------------|

Parte 2

    E        A        B   A
E|-----0----------0--0---0------------------|
B|-------0------2----4---2------------------|
G|---1--------2------4---2------------------|
D|------------------------------------------|
A|----------0--------2---0------------------|
E|-0----------------------------------------|

Refrão:

E     A               B
Oh, I   think that I found 
       E
Myself a cheerleader
    A                 B
She is always right there 
        E
When I need her

E     A               B
Oh, I   think that I found 
       E
Myself a cheerleader
    A                 B
She is always right there 
        E
When I need her

Segunda Parte:

     E         A
She walks like a model
B             A                E
  She grants my wishes like a genie 
   A        B        A
In a bottle   yeah, yeah
                E        A
'Cause I'm the wizard of   love
       B         A
And I got the magic wand
          E           A
All these other girls are tempting
        B           A
But I'm empty when you're gone

And they say

Pré-refrão:

E         A
  Do you need me?
 B                 A
Do you think I'm pretty?
      E                   A
Do I make you feel like cheating?
          B       A
I'm like no, not really 'cause

Refrão:

E     A               B
Oh, I   think that I found 
       E
Myself a cheerleader
    A                 B
She is always right there 
        E
When I need her

E     A               B
Oh, I   think that I found 
       E
Myself a cheerleader
    A                 B
She is always right there 
        E
When I need her

Base Solo: 

(E  A  B  A) 4x

(E  B  A) 4x

Solo Principal:

Parte 1

E|---0-4----0-4-2-0----0-4----0-4-2-5-0----0-4--------|
B|-2------2----------2------2------------2------------|
G|----------------------------------------------------|
D|----------------------------------------------------|
A|----------------------------------------------------|
E|----------------------------------------------------|

Parte 2

E|---0-7h9-7-----0---0-4--2-0---0--7h9-7--------0---0-|
B|-2---------9-7---2----------2----------10-9-7---2---|
G|----------------------------------------------------|
D|----------------------------------------------------|
A|----------------------------------------------------|
E|----------------------------------------------------|

Parte 3

E|-4-2-0---0------------------------------------------|
B|-------2---2----------------------------------------|
G|----------------------------------------------------|
D|----------------------------------------------------|
A|----------------------------------------------------|
E|----------------------------------------------------|

Parte 4

E|---0-0-0-------------7-7-7-9-9-9-12-12-12-14-14-14~-|
B|-2-------7-7-7-9-9-9--------------------------------|
G|----------------------------------------------------|
D|----------------------------------------------------|
A|----------------------------------------------------|
E|----------------------------------------------------|

Terceira Parte:

              E          A
She gives me love and affection
 B          A
Baby did I mention
 E               A
You're the only girl for me
   B                 A
No I don't need the next one
E                A
  Mom loves you too
              B                A
She thinks I made the right selection
    E                   A
Now all that's left to do
             B              A
Is just for me to pop the question

Refrão:

E     A               B
Oh, I   think that I found 
       E
Myself a cheerleader
    A                 B
She is always right there 
        E
When I need her

E     A               B
Oh, I   think that I found 
       E
Myself a cheerleader
    A                 B
She is always right there 
        E
When I need her

Base Final:

E  A  B  A (3x)

E

Final:

Parte 1

E|---0-4----0-4-2-0----0-4----0-4-2-5-0----0-4--------|
B|-2------2----------2------2------------2------------|
G|----------------------------------------------------|
D|----------------------------------------------------|
A|----------------------------------------------------|
E|----------------------------------------------------|

Parte 2

E|---0-4-2-0----0-0---0-0---0-0-4---------------------|
B|-2----------2-----2-----2---------------------------|
G|----------------------------------------------------|
D|----------------------------------------------------|
A|----------------------------------------------------|
E|----------------------------------------------------|
Composição de Felix Jaehn / OMI
Colaboración y revision:
  • bruno rodrigo
  • Leandro Sandim
  • bruno carvalho
2.069 reproducciones
  • Simplificar cifra
    • ½ Tono
    • A
    • Bb
    • B
    • C
    • Db
    • D
    • Eb
    • E
    • F
    • F#
    • G
    • Ab
  • Adicionar à lista

    0 comentarios

    Ver todos os comentários

    ¿Conseguiste tocar?

    15 Tocaram 1 Ainda não

    Grave um vídeo tocando Cheerleader e nos envie!

    00:00 / 00:00
    outros vídeos desta música
    repetir qualidade Automático
    Outros vídeos desta música
    00:00 / 00:00
    Automático
    Capítulos
    • Tocando a música
    • Dicas Iniciais / Equipamentos
    • Acordes da música
    • Tocando a Introdução
    • Solo Introdução
    • Tocando o Pré-Refrão
    • Dedilhado Pré-Refrão - Parte 1 de 2
    • Dedilhado Pré-Refrão - Parte 2 de 2
    • Tocando o Refrão
    • Ritmo do Refrão
    • Dicas 2
    • Tocando a Segunda Parte
    • Ritmo da Segunda Parte
    • Tocando o Solo
    • Solo Principal - Parte 1 de 4
    • Solo Principal - Parte 2 de 4
    • Solo Principal - Parte 3 de 4
    • Solo Principal - Parte 4 de 4
    • Dicas 3
    • Tocando a Terceira Parte
    • Tocando o Final
    • Final - Parte 1 de 2
    • Final - Parte 2 de 2
    • Encerramento
    • Ficha Técnica
    OK