Cifra Club

Despedida

Onda Vaga

Cifrado: Principal (guitarra y guitarra eléctrica)
tono: Ab
Fm          Bbm
   Pura sinceridad
Eb             Ab           Fm
  es lo que pretendo alcanzar
             Bbm
Lo que a mí me pasó
Eb            Ab          Db         Eb
   quiero decirte que mi vida la forjé con vos



Fm          Bbm
   Días enteros sin,
Eb                 Ab                Fm
   sin hablar con nadie mas que con vos
            Bbm
Hoy debo decirte adiós
Eb           Ab           Db            Eb
   Para ser libres fuimos uno y olvidamos los dos


Ab                       Fm
Veo es el momento, nos tenemos que alejar
Bbm                      Eb
Veo en el silencio la respuesta a la duda
     Ab                        Fm
Y espero que las lágrimas nos puedan liberar
Bbm                    Eb
de toda la pena si volvemos a empezar


     Ab                 Fm
Y te vas (y me voy a quebrar)
      Bbm              Eb
Y sé que (voy a sentirme muy solo)
           Ab             Fm
Me acostumbré (a tu compañía)
       Bbm            Eb
Y ahora es (duro pensarte lejos)


Fm          Bbm
   Nunca voy a borrar
Eb             Ab           Fm
Lo que construimos al girar
         Bbm
Como satélites
Eb              Ab              Db        Eb
   Aunque el destino hoy nos quiera ver sueltos brillar

Fm

    Fm    Bbm       Eb        Ab          Fm
E|----------------------------------------------------|-
B|-------6----4-2h4-----------------------------------|-
G|-------------------3----3--5-6-5-3---3--------------|-
D|-----3-----------------------------6---3------------|-
A|----------------------------------------------------|-
E|----------------------------------------------------|-

      Bbm           Eb       Ab         Db
E|----------------------------------------------------|-
B|---6------4-----------------------------------------|-
G|-------------6p5-3-----3-5-6-5-3---3----------------|-
D|-3-------------------------------6---3--------------|-
A|----------------------------------------------------|-
E|----------------------------------------------------|-

      Eb      Ab       Fm              Db      Eb
E|----------------------------------------------------|-
B|----------------------------------------------------|-
G|---------3-5---------3--5--3------------------------|-
D|-3-5---5----------6----------6-5-6--3----3--5-------|-
A|----------------------------------------------------|-
E|----------------------------------------------------|-


Ab                       Fm
Veo es el momento, nos tenemos que alejar
Bbm                      Eb
Veo en el silencio la respuesta a la duda
     Ab                        Fm
Y espero que las lágrimas nos puedan liberar
Bbm                    Eb
de toda la pena si volvemos a empezar


     Ab                 Fm
Y te vas (y me voy a quebrar)
      Bbm              Eb
Y sé que (voy a sentirme muy solo)
           Ab             Fm
Me acostumbré (a tu compañía)
       Bbm            Eb
Y ahora es (duro pensarte lejos)


      Ab                 Fm
Y me voy (y te vas a quebrar)
      Bbm           Eb
Y sé que (vas a sentirte muy sola)
            Ab              Fm
Te acostumbraste (a mi compañía)
       Bbm            Eb
Y ahora es (duro pensarte lejos)


    Cm     Fm    Cm    Fm   Bbm     Eb             Ab
E|-----------------------------------------------------|-
B|-----------------------------------------------------|-
G|-------------------------------------8---------------|-
D|-10--10/6-----10--10/6---10-8-----10---10-8---8/10---|-
A|------------------------------8----------------------|-
E|-----------------------------------------------------|-
00:00 / 00:00
Otros videos de esta canción
Repetir
Otros videos de esta canción
Composición de Onda Vaga
Colaboración y revisión:
  • Felipe Lima
120 vistas
    • ½ Tono
    • A
    • Bb
    • B
    • C
    • Db
    • D
    • Eb
    • E
    • F
    • F#
    • G
    • Ab
  • Agregar a la lista

    0 comentarios

    Ver todos los comentarios

    ¿Lograste tocar?

    0 Tocaron 0 Aún no

    ¡Graba un video tocando Despedida y envíanoslo!

    00:00 / 00:00
    OK