Cifra Club

Ice Cream Sundae

One Bad Pig

Cifrado: Principal (guitarra y guitarra eléctrica)
tono: A
E|------------------------------------------|
B|------------------------------------------|
G|------------------------------------------|
D|-----7-7--1010---9------8-----------------|
A|-----7-7--1010---9------8-----------------|
E|-----5-5--8-8----7------6-----------------|

The luscious treat we......
E|------------------------------------|
B|------------------------------------|
G|------------------------------------|
D|---12----11---12----9-11------------|
A|---12----11---12----9-11------------|
E|---10----9----10----7-9-------------|

Refrão:
E|---------------------------|
B|---------------------------|
G|---------------------------|
D|--10-----5------7----------|
A|--10-----5------7----------|
E|---8-----3------5----------|

It´s all gonna melt ....
E|--------------------------|
B|--------------------------|
G|--------------------------|
D|---3-5--7-----------------|
A|---3-5--7-----------------|
E|---1-3--5-----------------|


Compositor não encontrado.
Colaboración y revisión:
  • Eduardo Lopes
20 vistas
    • ½ Tono
    • A
    • Bb
    • B
    • C
    • Db
    • D
    • Eb
    • E
    • F
    • F#
    • G
    • Ab
  • Agregar a la lista

    0 comentarios

    Ver todos los comentarios

    ¿Lograste tocar?

    0 Tocaron 0 Aún no

    ¡Graba un video tocando Ice Cream Sundae y envíanoslo!

    00:00 / 00:00
    Outros vídeos desta música
    Repetir Calidad Automático
    Outros vídeos desta música
    00:00 / 00:00
    Automático
    OK