Cifra Club

Pad Thai

One Bad Pig

Cifrado: Principal (guitarra y guitarra eléctrica)
tono: D
E|---------------------------|
B|---------------------------|
G|---7--10-9--5--------------|
D|---7--10-9--5--------------|
A|---5--8--7--3--------------|
E|---------------------------| (4X)

When my brain starts to fry
It´s time to go and get Pad Thai!!!
E|---------------------------------|
B|---------------------------------|
G|---7--10-9--55555----------------|
D|---7--10-9--55555----------------|
A|---5--8--7--33333----------------|
E|---------------------------------|

Compositor não encontrado.
Colaboración y revisión:
  • Eduardo Lopes
25 vistas
    • ½ Tono
    • A
    • Bb
    • B
    • C
    • Db
    • D
    • Eb
    • E
    • F
    • F#
    • G
    • Ab
  • Agregar a la lista

    0 comentarios

    Ver todos los comentarios

    ¿Lograste tocar?

    0 Tocaron 0 Aún no

    ¡Graba un video tocando Pad Thai y envíanoslo!

    00:00 / 00:00
    Outros vídeos desta música
    Repetir Calidad Automático
    Outros vídeos desta música
    00:00 / 00:00
    Automático
    OK