Cifra Club

Irresistible

One Direction

Cifrado: Principal (guitarra y guitarra eléctrica)
tono: G
Intro: G

INTRO

E|-------------------------------------------------|
B|---------3---3---3-------------3---3---3---3-----|
G|-------0-----0---0-----------0-----0---0---0-----|     (x2)
D|---4h5-----5---5---5-----4h5-----5---5---5-------|
A|-------------------------------------------------|
E|-------------------------------------------------|

VERSE (Harry)

E|---------------------------------------------------------------------|
B|----3---3---3---3---3---3---3---3---3---3---3---3---3---3---3---3----|
G|----0---0---0---0---0---0---0---0---0---0---0---0---0---0---0---0----|
D|--5---5---4---4---2---2---0---0-------------------2---2---4---4------|
A|----------------------------------3---3---3---3----------------------|
E|---------------------------------------------------------------------|

Don't try to make me stay

Or ask if I'm okay

I don't have the answer

E|---------------------------------------------------------------------|
B|----3---3---3---3---3---3---3---3---3---3---3---3---3---3---3---3----|
G|----0---0---0---0---0---0---0---0---0---0---0---0---0---0---0---0----|
D|--5---5---4---4---2---2---0---0-------------------2---2---4---4------|
A|----------------------------------3---3---3---3----------------------|
E|---------------------------------------------------------------------|


Don't make me stay the night

Or ask if I'm alright

I don't have the answer

VERSE (Liam)

E|---------------------------------------------------------------------|
B|----3---3---3---3---3---3---3---3----3---3---3---3---3---3---3---3---|
G|----0---0---0---0---0---0---0---0----0---0---0---0---0---0---0---0---|
D|------------------2---2---0---0--------------------0---0---0---0-----|
A|--2---2---3---3--------------------2---2---3---3---------------------|
E|---------------------------------------------------------------------|
Heartache doesn't last forever

I'll say I'm fine

E|---------------------------------------------------------------------|
B|----3---3---3---3---3---3---3---3----3---3---3---3---3---3-----------|
G|----0---0---0---0---0---0---0---0----0---0---0---0---0---0-----------|
D|------------------2---2---0---0--------------------0---0---0---------|
A|--2---2---3---3--------------------2---2---3---3---------------------|
E|---------------------------------------------------------------------|

Midnight ain't no time for laughing

When you say goodbye


CHORUS


E|-------------------------------------------------------------------|
B|----3---3---3---3---3---3---3---3----3---3---3---3---3---3---3---3-|
G|----0---0---0---0---0---0---0---0----0---0---0---0---0---0---0---0-|
D|-------------------------------------------------------------------|
A|--3---3---2---2---0---0------------3---3---2---2---0---0-----------|
E|--------------------------3---3----------------------------3---3---|

It makes your lips so kissable

And your kiss, unmissable

E|------------------------------------|
B|----3---3---3---3---3---3---3---3---|
G|----0---0---0---0---0---0---0---0---|
D|------------------------------------|
A|--3---3---2---2---0---0---2---2-----|
E|------------------------------------|

Your fingertips so touchable

E|-----------------------------|
B|----1---1---1---1------------|
G|----0---0---0---0------------|
D|-----------------------------|
A|--0---0---0---0----------3---|
E|-----------------------------|

Your eyes irresistible

Instrumental

E|-----------------------------------------------------|
B|----3---3---3---3---3---3---3---3---3---3---3---3----|
G|----0---0---0---0---0---0---0---0---0---0---0---0----|
D|--5---5---4---4---2---2---0---0---------------0------|
A|----------------------------------3---2---0----------|
E|-----------------------------------------------------|

VERSE (Niall)


E|---------------------------------------------------------------------|
B|----3---3---3---3---3---3---3---3---3---3---3---3---3---3---3---3----|
G|----0---0---0---0---0---0---0---0---0---0---0---0---0---0---0---0----|
D|--5---5---4---4---2---2---0---0-------------------2---2---4---4------|
A|----------------------------------3---3---3---3----------------------|
E|---------------------------------------------------------------------|

I've tried to ask my self

Should I see somene else?

I wish I knew the answer

(Harry)

E|---------------------------------------------------------------------|
B|----3---3---3---3---3---3---3---3---3---3---3---3---3---3---3---3----|
G|----0---0---0---0---0---0---0---0---0---0---0---0---0---0---0---0----|
D|--5---5---4---4---2---2---0---0-------------------2---2---4---4------|
A|----------------------------------3---3---3---3----------------------|
E|---------------------------------------------------------------------|

But I know, if I go now, if I leave

Then I'm on my own tonight

I'll never know the answer

VERSE (Liam)

E|---------------------------------------------------------------------|
B|----3---3---3---3---3---3---3---3----3---3---3---3---3---3---3---3---|
G|----0---0---0---0---0---0---0---0----0---0---0---0---0---0---0---0---|
D|------------------2---2---0---0--------------------0---0---0---0-----|
A|--2---2---3---3--------------------2---2---3---3---------------------|
E|---------------------------------------------------------------------|


Midnight doesn't last forever

Dark turns to light


E|---------------------------------------------------------------------|
B|----3---3---3---3---3---3---3---3----3---3---3---3---3---3-----------|
G|----0---0---0---0---0---0---0---0----0---0---0---0---0---0-----------|
D|------------------2---2---0---0--------------------0---0---0---------|
A|--2---2---3---3--------------------2---2---3---3---------------------|
E|---------------------------------------------------------------------|

Heartache flips my world around

I'm falling down, down, down,

That's why...

E|-------------------------------------------------------------------|
B|----3---3---3---3---3---3---3---3----3---3---3---3---3---3---3---3-|
G|----0---0---0---0---0---0---0---0----0---0---0---0---0---0---0---0-|
D|-------------------------------------------------------------------|
A|--3---3---2---2---0---0------------3---3---2---2---0---0-----------|
E|--------------------------3---3----------------------------3---3---|

I find your lips so kissable

And your kiss, unmissable

E|------------------------------------|
B|----3---3---3---3---3---3---3---3---|
G|----0---0---0---0---0---0---0---0---|
D|------------------------------------|
A|--3---3---2---2---0---0---2---2-----|
E|------------------------------------|

Your fingertips so touchable

E|------------------------------------|
B|----3---3---3---3---3---3---3---3---|
G|----0---0---0---0---0---0---0---0---|
D|------------------------------------|
A|--3---3---2---2---0---0---2---2-----|
E|------------------------------------|
And your eyes irrestibile

E|-----------------------------|
B|----1---1---1---1------------|
G|----0---0---0---0------------|     (x7)
D|-----------------------------|
A|--0---0---0---0----------3---|
E|-----------------------------|

E|-------------------------------------------------------------------|
B|----3---3---3---3---3---3---3---3----3---3---3---3---3---3---3---3-|
G|----0---0---0---0---0---0---0---0----0---0---0---0---0---0---0---0-|
D|-------------------------------------------------------------------|
A|--3---3---2---2---0---0------------3---3---2---2---0---0-----------|
E|--------------------------3---3----------------------------3---3---|


It's in your lips and in your kiss

It's in your touch and your finger tip

E|-------------------------------------------------------------------|
B|----3---3---3---3---3---3---3---3----3---3---3---3---3---3---3---3-|
G|----0---0---0---0---0---0---0---0----0---0---0---0---0---0---0---0-|
D|-------------------------------------------------------------------|
A|--3---3---2---2---0---0------------3---3---2---2---0---0-----------|
E|--------------------------3---3----------------------------3---3---|

And it's in all the things and other things

That make you who you are and your eyes irresistible

E|-------------------------------------------------------------------|
B|----3---3---3---3---3---3---3---3----3---3---3---3---3---3---3---3-|
G|----0---0---0---0---0---0---0---0----0---0---0---0---0---0---0---0-|
D|-------------------------------------------------------------------|
A|--3---3---2---2---0---0------------3---3---2---2---0---0-----------|
E|--------------------------3---3----------------------------3---3---|

It makes your lips so kissable

And your kiss, unmissable

E|------------------------------------|
B|----3---3---3---3---3---3---3---3---|
G|----0---0---0---0---0---0---0---0---|
D|------------------------------------|
A|--3---3---2---2---0---0---2---2-----|
E|------------------------------------|

Your fingertips so touchable

E|-----------------------------|
B|----1---1---1---1------------|
G|----0---0---0---0------------|
D|-----------------------------|
A|--0---0---0---0----------3---|
E|-----------------------------|

And your eyes, your eyes, your eyes, your eyes, your eyes, your

Eyes... irresistible
00:00 / 00:00
Otros videos de esta canción
Repetir
Otros videos de esta canción
Composición de Danny Jones / Dougie Poynter / Harry Styles / Liam Payne / Louis Tomlinson / Niall Horan / Tom Fletcher / Zayn Malik
Colaboración y revisión:
  • Ulisses
  • Christine Farias
11.427 exhibiciones
  • Simplificar cifrado
    • ½ Tono
    • A
    • Bb
    • B
    • C
    • Db
    • D
    • Eb
    • E
    • F
    • F#
    • G
    • Ab
  • Agregar a la lista
    00:00 / 00:00
    OK