Cifra Club

Midnight Memories

One Direction

Tablatura: Principal (guitarra)
Tom: A
Straight off the plane to a new hotel

E|---------------------------------------------|
B|---------------------------------------------|
G|---------------------------------------------|
D|---------------------------------------------|
A|-----------2-4-5---5-4-----------------------|
D|-0-2-4-5---------------5-5--4-2-0-0----------|

Just touched down, you could never tell

E|----------------------------------------------|
B|----------------------------------------------|
G|----------------------------------------------|
D|----------------------------------------------|
A|----------2-4-5----5-4------------------------|
D|-0-2-4-5-----------------5-5---4-2-0-0--------|
                                       
Big house party with a crowded kitchen

E A D A
E|----------------------------------------------|
B|----------------------------------------------|
G|----------------------------------------------|
D|----------------------------------------------|
A|----------2-4-5---5-4-------------------------|
D|-0-2-4-5----------------5-5----4-2-0-0--------|

E
People talk shh but we don't listen

A
Tell me that I'm wrong but I do what I please
C
Way too many people in the Addison Lee
D
Now I'm in the age when I know what I need, oh whoa

Refrão:

E        A      B
Midnight memories, oh oh oh
E|----------------=-----------------------|
B|----------------------------------------|
G|----------------------------------------|
D|-----2----------------------------------|
A|-2h4---4-2------------------------------|
D|-----------4-2--------------------------|

E
Baby you and me
A
Stumbling in the street
B
Singing, singing, singing, singing
E       A       B
Midnight memories, oh oh oh

E|----------------------------------------|
B|----------------------------------------|
G|----------------------------------------|
D|-----2----------------------------------|
A|-2h4---4-2------------------------------|
D|-----------4-2--------------------------|

E
Anywhere we go
A
Never say no
B
Just do it, do it, do it, do it

E                                       A
5 foot something with the skinny jeans

E A D A
E|--------------------------------------------|
B|--------------------------------------------|
G|--------------------------------------------|
D|-------------0------------------------------|
A|-------0-2-4---4-2-0-0----------------------|
D|-0-2-4------------------4-2-0-0-------------|

E                                       A
Don't look back, baby follow me

E A D A
E|--------------------------------------------|
B|--------------------------------------------|
G|--------------------------------------------|
D|-------------0------------------------------|
A|-------0-2-4---4-2-0-0----------------------|
D|-0-2-4------------------4-2-0-0-------------|

E                                                      A
I don't know where I'm going but I'm finding my way

E A D A
E|-------------------------------------------|
B|-------------------------------------------|
G|-------------------------------------------|
D|-------------0-----------------------------|
A|-------0-2-4---4-2-0-0---------------------|
D|-0-2-4-----------------4-2-0-0-------------|

E
Same old shh but a different day

A
Tell me that I'm wrong but I do what I please
C
Way too many people in the Addison Lee
D
Now I'm in the age when I know what I need, oh whoa

Refrão:

E       A       B
Midnight memories, oh oh oh
E
Baby you and me
A
Stumbling in the street
B
Singing, singing, singing, singing
E       A       B
Midnight memories, oh oh oh
E
Anywhere we go
A
Never say no
B
Just do it, do it, do it

C#m                          A
You and me and all our friends
                             E
I don't care how much we spend
                               B
Baby this is what the night is for, oh, oh
C#m                           A
I know nothing's making sense
                                 E
For tonight let's just pretend
                                    B
I don't wanna stop so give me more, ow

Refrão:

E       A       B
Midnight memories, oh oh oh
E
Baby you and me
A
Stumbling in the street
B
Singing, singing, singing, singing
E       A       B
Midnight memories, oh oh oh
E
Anywhere we go
A
Never say no
B                         E
Just do it, do it, do it.
reproducciones 9.080
Acordes para:

    0 comentarios

    mostrar más comentarios

    ¿Conseguiste tocar?

    16 tocaron 0 aún no

    ¡Graba un vídeo tocando Midnight Memories y envianoslo!

    00:00 / 00:00
    outros vídeos desta música
    repetir qualidade Automático
    Outros vídeos desta música
    00:00 / 00:00
    Automático
    OK