Cifra Club

Truly Madly Deeply

One Direction

Tablatura: Principal (guitarra)
Tom: C
INTRO
E|----0-0--0-0--0-0--0-0----|
B|----5-5--5-5--5-5--5-5----|
G|---5----4----2----4-------|
D|--------------------------|
A|--------------------------|
E|--------------------------|

VERSE 1 (Liam)
E|-----0-0---0-0---0-0---0-0---0-0---0-0---0-0---0-0----|
B|-----5-5---5-5---5-5---5-5---5-5---5-5---5-5---5-5----|
G|---5-----4-----2-----4-----5-----4-----2-----4--------|
D|------------------------------------------------------|
A|------------------------------------------------------|
E|------------------------------------------------------|

Am I asleep, am I awake, or somewhere in between

I can’t believe that you are here and lying next to me

E|-----3-3---3-3---3-3---3-3---3-3---3-3---3-3---3-3-----|
B|-----1-1---1-1---1-1---1-1---1-1---1-1---1-1---1-1-----|
G|-------------------------------------------------------|
D|---3-----2-----0-----2-----3-----2-----0-----2---------|
A|-------------------------------------------------------|
E|-------------------------------------------------------|

Or did I dream that we were perfectly entwined

Like branches on a tree, or twigs caught on a vine.

VERSE 2 (Niall)
E|-----0-0---0-0---0-0---0-0---0-0---0-0---0-0---0-0----|
B|-----5-5---5-5---5-5---5-5---5-5---5-5---5-5---5-5----|
G|---5-----4-----2-----4-----5-----4-----2-----4--------|
D|------------------------------------------------------|
A|------------------------------------------------------|
E|------------------------------------------------------|

Like all those days and weeks and months I tried to steal a kiss

And all those sleepless nights and daydreams where I pictured this,

E|-----3-3---3-3---3-3---3-3---3-3---3-3---3-3---3-3-----|
B|-----1-1---1-1---1-1---1-1---1-1---1-1---1-1---1-1-----|
G|-------------------------------------------------------|
D|---3-----2-----0-----2-----3-----2-----0-----2---------|
A|-------------------------------------------------------|
E|-------------------------------------------------------|

I’m just the underdog who finally got the girl

And I am not ashamed to tell it to the world.

CHORUS
E|-----0-0---0-0---0-0---0-0---0-0---0-0---0-0---0-0----|
B|-----5-5---5-5---5-5---5-5---5-5---5-5---5-5---5-5----|
G|---5-----4-----2-----0-----5-----4-----2-----0--------|
D|------------------------------------------------------|
A|------------------------------------------------------|
E|------------------------------------------------------|

Truly, madly, deeply, I am

Foolishly, completely fallin’

E|-----0-0---0-0---0-0---0-0---0-0---0-0---0-0---0-0----|
B|-----5-5---5-5---5-5---5-5---5-5---5-5---5-5---5-5----|
G|---5-----4-----2-----0-----5-----4-----2-----0--------|
D|------------------------------------------------------|
A|------------------------------------------------------|
E|------------------------------------------------------|

And somehow, you caved all my walls in

So baby, say you’ll always keep me

E|-----0-0---0-0---0-0---0-0---0-0---0-0---0-0---0-0----|
B|-----5-5---5-5---5-5---5-5---5-5---5-5---5-5---5-5----|
G|---5-----4-----2-----0-----5-----4-----2-----0--------|
D|------------------------------------------------------|
A|------------------------------------------------------|
E|------------------------------------------------------|

Truly, madly, crazy, deeply in love with you

E|-----0-0---0-0---0-0---0-0----|
B|-----5-5---5-5---5-5---5-5----|
G|---5-----4-----2-----0--------|
D|------------------------------|
A|------------------------------|
E|------------------------------|

In love with you.


VERSE 3 (Liam)

E|-----0----0----0----0----0----0----0----0----|
B|----5-5--5-5--5-5--5-5--5-5--5-5--5-5--5-5---|
G|--5----4----2----4----5----4----2----4-------|
D|---------------------------------------------|
A|---------------------------------------------|
E|---------------------------------------------|

Should I put coffee and granola on a tray in bed

And wake you up with all the words I still haven’t said

E|-----3----3----3----3----3----3----3----3----|
B|----1-1--1-1--1-1--1-1--1-1--1-1--1-1--1-1---|
G|---------------------------------------------|
D|--3----2----0----2----3----2----0----2-------|
A|---------------------------------------------|
E|---------------------------------------------|

And tender touches, just to show you how I feel

Or should I act so cool, like it was no big deal.




VERSE 4 (Zayn)

E|-----0----0----0----0----0----0----0----0----|
B|----5-5--5-5--5-5--5-5--5-5--5-5--5-5--5-5---|
G|--5----4----2----4----5----4----2----4-------|
D|---------------------------------------------|
A|---------------------------------------------|
E|---------------------------------------------|

Wish I could freeze this moment in a frame and stay like this

I’ll put this day back on replay and keep reliving it

E|-----3----3----3----3----3----3----3----3----|
B|----1-1--1-1--1-1--1-1--1-1--1-1--1-1--1-1---|
G|---------------------------------------------|
D|--3----2----0----2----3----2----0----2-------|
A|---------------------------------------------|
E|---------------------------------------------|

'Cause here’s the tragic truth if you don’t feel the same

My heart would fall apart if someone said your name.





CHORUS


E|-----0-----0-----0-----0-----0-----0-----0-----0-------------|
B|----5-5---5-5---5-5---5-5---5-5---5-5---5-5---5-5------------|
G|---5----4-----2-----0-----5-----4-----2-----0----------------|
D|-------------------------------------------------------------|
A|-------------------------------------------------------------|
E|-------------------------------------------------------------|


Truly, madly, deeply, I am

Foolishly, completely falling


E|-----0-----0-----0-----0-----0-----0-----0-----0-------------|
B|----5-5---5-5---5-5---5-5---5-5---5-5---5-5---5-5------------|
G|---5----4-----2-----0-----5-----4-----2-----0----------------|
D|-------------------------------------------------------------|
A|-------------------------------------------------------------|
E|-------------------------------------------------------------|

And somehow, you caved all my walls in

So baby, say you’ll always keep me


E|-----0-----0-----0-----0-----0-----0-----0-----0-------------|
B|----5-5---5-5---5-5---5-5---5-5---5-5---5-5---5-5------------|
G|---5----4-----2-----0-----5-----4-----2-----4----------------|
D|-------------------------------------------------------------|
A|-------------------------------------------------------------|
E|-------------------------------------------------------------|

Truly, madly, crazy, deeply in love with you.


E|------3----3----3----3----3----3-----|
B|-----1-1--1-1--1-1--1-1--1-1--1-1----|
G|-------------------------------------|
D|---3----3----3----3----3----3--------|
A|-------------------------------------|
E|-------------------------------------|

I hope I’m not a casualty,

Hope you won’t get up and-


E|------3----3----3-----|
B|-----1-1--1-1--1-1----|
G|----------------------|
D|---2----2----2--------|
A|----------------------|
E|----------------------|

-leave*

I don’t mean that much to-

E|------3----3----3-------------|
B|-----1-1--1-1--1-1------------|
G|------------------------------|
D|------------------------------|
A|------------------------------|
E|---3----3----3-------------1--|

-you*

But to me it’s everything.

Everything.


E|-----0----0----0----0----0----0----0----0----|
B|----5-5--5-5--5-5--5-5--5-5--5-5--5-5--5-5---|
G|--5----4----2----4----5----4----2----4-------|
D|---------------------------------------------|
A|---------------------------------------------|
E|---------------------------------------------|

Truly, madly, deeply, I am

Foolishly, completely falling


E|-----0----0----0----0----0----0----0----0----|
B|----5-5--5-5--5-5--5-5--5-5--5-5--5-5--5-5---|
G|--5----4----2----4----5----4----2----0-------|
D|---------------------------------------------|
A|---------------------------------------------|
E|---------------------------------------------|

And somehow you caved all my walls in

So baby, say you’ll always keep me

E|-----0-----0-----0-----0-----0-----0-----0-----0-------------|
B|----5-5---5-5---5-5---5-5---5-5---5-5---5-5---5-5------------|
G|---5----4-----2-----0-----5-----4-----2-----0----------------|
D|-------------------------------------------------------------|
A|-------------------------------------------------------------|
E|-------------------------------------------------------------|

Truly, madly, crazy, deeply in love with you

E|-----0-----0-----0-----0-----0-----0-----0-----0-----------------------|
B|----5-5---5-5---5-5---5-5---5-5---5-5---5-5---5-5----------------------|
G|---5----4-----2-----0-----5-----4-----2-----0------------------5-------|
D|-----------------------------------------------------------------------|
A|-----------------------------------------------------------------------|
E|-----------------------------------------------------------------------|

In love with you,  In love with you                           With You.
reproducciones 4.464
Acordes para:
    Composição: Lindy Robbins / Toby Gad / Trevor Dahl Colaboración y revision:
    • Nathalia Pessoa

    0 comentarios

    mostrar más comentarios

    ¿Conseguiste tocar?

    9 tocaron 0 aún no

    ¡Graba un vídeo tocando Truly Madly Deeply y envianoslo!

    00:00 / 00:00
    outros vídeos desta música
    repetir qualidade Automático
    Outros vídeos desta música
    00:00 / 00:00
    Automático
    OK