Cifra Club

Kagerou

One Ok Rock

Cifrado: Principal (guitarra y guitarra eléctrica)
tono: A
B|-----2p0h2---2---0h2----
G|---2-----------2-----2--
D|-0----------------------
A|------------------------
E|------------------------
wa KAGEROU

E|-----------0------------
B|-----2p0h2---2---0h2----
G|---2-----------2-----2--
D|-2----------------------
A|------------------------
E|------------------------
tsutaerarezu boku wa

E|-----------0~~~---------
B|-----2p0h2--------------
G|---2--------------------
D|-0----------------------
A|------------------------
E|------------------------
tadayou...


(D E C#m F#m) (4x)


Verso:
D                         E
 futo kidzuku to boku wa koko ni tatteita
D                          E
 idaku hazu no nai kimochi wo katate ni
D                     E
 makimodoshite mitara kono omoi wa mieru kana?
D                  E              E         E5
 hayaokuri shitara kono kanjou wa nokoru no kana?



Ponte:
D     C#5+           Bm    C#5+
sonna WAKE nai tte waratte miru kedo
D     C#5+            E
sono warai sura mou fushizen de



Refrão:
        D   E        C#m    F#m
kimi wo omou kimochi wa KAGEROU
       D     E      C#m    F#m
mada jibun ni sunao ni narenai
       D     E      C#m      F#m
hontou wa mou kidzuiteiru no ni
       D      E     C#m      F#m          D
tada kotoba ni dekinai jibun ga uzuiteiru no!

E|-0---------------------0-----------------0--
B|---3-2h3p2----9\2--2-----3-2h3p2-----0h2----
G|-----------2--9\2--2-------------2----------
D|--------------6\0--0------------------------
A|--------------0\0--0------------------------
E|--------------------------------------------


Verso:
D                        E
 ishiki sureba suru hodo toonoiteiku
D                        E           E    E5
 sore ga sabishii no wa nande darou?



Ponte:
D            C#5+       Bm        C#5+
betsu ni tte taido de hanashi nagashitari
D           C#5+        E
itsumo yori nazeka tsumetaku shite...



Refrão:
        D   E        C#m    F#m
kimi wo omou kimochi wa KAGEROU
       D     E      C#m    F#m
mada jibun ni sunao ni narenai
       D     E      C#m      F#m
hontou wa mou kidzuiteiru no ni
       D      E     C#m      F#m
tada kotoba ni dekinai jibun ga iru dake na 

E|-----------0------------
B|-----2p0h2---2---0h2----
G|---2-----------2-----2--
D|-0----------------------
A|------------------------
E|------------------------

E|-----------0~~~---------
B|-----2p0h2--------------
G|---2--------------------
D|-0----------------------
A|------------------------
E|------------------------
no!



Outro:
D         E               F#m
nanigenai shigusa demo me dake wa kimi dake wo otteita
     D        E            F#m
...nante kangaeta toki wa mou suki datta


(O shape do E, muda na 2ª parte do outro)
 obs:   E
E|-----x----
B|-----x----
G|-----9----
D|-----6----
A|-----7----
E|-----x----

Outro pt.2:
  D5          E5             E                  C#5
kimi to au to kimeta hi wa dore dake jibun wo kakushita darou?
  D5          E5                    E                F#5
kirawareru no ga kowakute... tte kangaeta toki ni wa aishiteta



Refrão final:
D         E               C#m                  F#m
nanigenai shigusa demo me dake wa kimi dake wo otteita
     D         E          C#m        F#m
...nante kangaeta toki wa mou suki datta
D             E             C#m                 F#m
kimi to au to kimeta hi wa dore dake jibun wo kakushita darou?
  D           E                  C#m              F#m
kirawareru no ga kowakute... tte kangaeta toki ni wa
D E C#m F#m
aishiteta
D E C#m F#m
aishiteta
aishiteta

E|-----------0------------
B|-----2p0h2---2---0h2----
G|---2-----------2-----2--
D|-0----------------------
A|------------------------
E|------------------------

E|-----------0~~~---------
B|-----2p0h2--------------
G|---2--------------------
D|-0----------------------
A|------------------------
E|------------------------

00:00 / 00:00
Otros videos de esta canción
Repetir
Otros videos de esta canción
Composición de Taka / Toru
Colaboración y revisión:
  • Leo OORguitah
57 vistas
    • ½ Tono
    • A
    • Bb
    • B
    • C
    • Db
    • D
    • Eb
    • E
    • F
    • F#
    • G
    • Ab
  • Agregar a la lista

    0 comentarios

    Ver todos los comentarios

    ¿Lograste tocar?

    0 Tocaron 0 Aún no

    ¡Graba un video tocando Kagerou y envíanoslo!

    00:00 / 00:00
    OK