Cifra Club

Kanzen Kankaku Dreamer

One Ok Rock

Cifrado: Principal (guitarra y guitarra eléctrica)
tono: F
(intro)

E|-----------------------------------------|
B|-----------------------------------------|
G|12-12-12-12-12-10--10-10/15-15-12--12-12-|
D|-----------------------------------------|
A|10-10-10-10-10-8---8-8/13--13-10---10-10-|
E|-----------------------------------------|

E|-----------------------------------------|
B|-----------------------------------------|
G|12-12-12-12-12-10--10-10/15-15-10--10-10-|
D|-----------------------------------------|
A|10-10-10-10-10-8---8-8/13--13-8----8-8---|
E|-----------------------------------------|

E|----------------------------------------------|
B|----------------------------------------------|
G|10-10-10-10-10-8--8-10-12-10-8-8-10(8x)-9(8x)-|
D|----------------------------------------------|
A|8--8--8--8--8--6--6-8--10-8--6-6-8(8x)--7(8x)-|
E|----------------------------------------------|

E|-----------------------------------------|
B|-----------------------------------------|
G|12-12-12-12-12-10--10-10/15-15-12--12-12-|
D|-----------------------------------------|
A|10-10-10-10-10-8---8-8/13--13-10---10-10-|
E|-----------------------------------------|

E|-----------------------------------------|
B|-----------------------------------------|
G|12-12-12-12-12-10--10-10/15-15-10--10-10-|
D|-----------------------------------------|
A|10-10-10-10-10-8---8-8/13--13-8----8-8---|
E|-----------------------------------------|

E|-----------------------------------------|
B|-----------------------------------------|
G|10-10-10-10-10-8--8-10-12-10-8-8-17(16x)-|
D|-----------------------------------------|
A|8--8--8--8--8--6--6-8--10-8--6-6-15(16x)-|
E|-----------------------------------------|
00:00 / 00:00
Otros videos de esta canción
Repetir
Otros videos de esta canción
Composición de Taka Morita
Colaboración y revisión:
  • Jessica Plá
1.089 vistas
  • Simplificar cifrado
    • ½ Tono
    • A
    • Bb
    • B
    • C
    • Db
    • D
    • Eb
    • E
    • F
    • F#
    • G
    • Ab
  • Agregar a la lista

    0 comentarios

    Ver todos los comentarios

    ¿Lograste tocar?

    1 Tocaron 0 Aún no

    ¡Graba un video tocando Kanzen Kankaku Dreamer y envíanoslo!

    00:00 / 00:00
    OK