Cifra Club

Memories

One Piece

Cifrado: Principal (guitarra y guitarra eléctrica)
tono: D
(intro)

E|---------2-------|--------3--2-----|---------2-------|-------3---2-----|
B|-----3-------3---|-----3-------3---|-----3-------3---|-----3-------3---|
G|-2---------------|-2---------------|-2---------------|-2---------------|
D|-0---------------|-----------------|---0-------------|-----------------|
A|-----------------|-----------------|-----------------|-----------------|
E|-----------------|-----------------|-----------------|-----------------|

D
Chisana
D/C#
koro ni wa
Bm A G
takara no chizu ga
Em
Atama no
Bm
naka ni
G Asus4 A Asus2 A
ukandei------te

D
Itsudemo
D/C#
sagashita
Bm A G
kiseki no basho o
Em
Shiranai
Bm
dareka ni
G A D
makenai you ni

G
La la laa la
D
Ima de wa

Laa la la la-la
A F# Bm
hokori darake no mainichi
G
Itsu no hi ka
La la laa la
D
subete no

Laa la la la-la
Em A
Toki ni mi o makaseru dake

D G G/F#
Moshi mo sekai ga kawaru no nara
Em D
Nanimo shiranai koro no watashi ni
Bm F#m
Tsurete itte
G D
omoide ga
Em A (D )
iro asenai you (ni)

 D
E|---------2-------|--------3--2-----|---------2-------|-------3---2-----|
B|-----3-------3---|-----3-------3---|-----3-------3---|-----3-------3---|
G|-2---------------|-2---------------|-2---------------|-2---------------|
D|-0---------------|-----------------|---0-------------|-----------------|
A|-----------------|-----------------|-----------------|-----------------|
E|-----------------|-----------------|-----------------|-----------------|

D
Chisana
D/C#
koro kara
Bm A G
uta o utatte
Em
Yume miru
Bm
kokoro
  G Asus4 A Asus2 A
atatamete|-----ta

D
Minna de
D/C#
maneshita
Bm A G
himitsu no merodei
Em
Kondo wa
Bm
jouzu ni
G A D
kikoeru you ni

G
La la laa la
D
Ima de wa

Laa la la la-la
A F# Bm
tame iki tsuite bakari de
G
Daremo mada

La la laa la
D
hontou no

Laa la la la-la
Em A
Yume sae tsukamenai mama

D G G/F#
Moshi mo jidai ga modoru no nara
Em D
Namida o shitta koro no watashi ni
Bm F#m
Tsurete itte
G D
setsunasa ga
Em A
oitsukanai you (ni)
D D G G/F#
Moshi mo sekai ga kawaru no nara
Em D D
Nanimo shiranai koro no watashi ni
Bm F#m
Tsurete itte
G D
omoide ga
Em A D D
iro asenai you ni

Bm F#m
Tsurete itte
G D
setsunasa ga
Em A (D )
oitsukanai you (ni)
00:00 / 00:00
Otros videos de esta canción
Repetir
Otros videos de esta canción
Composición de Maki Otsuki
Colaboración y revisión:
  • Lucas
  • Douglas Araujo
  • Victor Corrêa
1.525 vistas
    • ½ Tono
    • A
    • Bb
    • B
    • C
    • Db
    • D
    • Eb
    • E
    • F
    • F#
    • G
    • Ab
  • Agregar a la lista

    0 comentarios

    Ver todos los comentarios

    ¿Lograste tocar?

    11 Tocaron 0 Aún no

    ¡Graba un video tocando Memories y envíanoslo!

    00:00 / 00:00
    OK