Cifra Club

Apologize (feat. Timbaland)

OneRepublic

Cifrado: Principal (guitarra y guitarra eléctrica)
tono: Cm
[Intro] Cm  Ab6  Eb  Bb
        Cm  Ab6  Eb  Bb

[TAB - Intro]

[Parte 1 De 4]
   Cm               Ab6
E|------------------------------------------|
B|-4--------4-------6--------6--------------|
G|-----5-------5--------5--------5----------|
D|---5---5---5---5----6---6----6---6--------|
A|------------------------------------------|
E|------------------------------------------|

Parte 2 de 4
   Eb               Bb
E|------------------------------------------|
B|-4--------4-------3--------3--------------|
G|-----3-------3--------3--------3----------|
D|---5---5---5---5----3---3----3---3--------|
A|------------------------------------------|
E|------------------------------------------|

Parte 3 de 4
   Cm               Ab6
E|------------------------------------------|
B|-4--------4-------6---6----6---6----------|
G|-----5-------5----------------------------|
D|---5---5---5---5----6---6----6---6--------|
A|------------------------------------------|
E|------------------------------------------|

Parte 4 de 4
   Eb               Bb
E|------------------------------------------|
B|-4--------4-------3--------3--------------|
G|-----3-------3--------3--------3----------|
D|---5---5---5---5----3---3----3---3--------|
A|------------------------------------------|
E|------------------------------------------|

[Primeira Parte]

     Cm
I'm holding on your rope
        Ab6               Eb   Bb
Got me ten feet off the ground
     Cm                        Ab6               Eb   Bb
I'm hearin what you say but I just can't make a sound
     Cm
You tell me that you need me
 Ab6                    Eb        Bb
Then you go and cut me down, but wait
     Cm
You tell me that you're sorry
 Ab6                    Eb         Bb
Didn't think I'd turn around, and say

[Refrão]

      Cm               Ab6        Eb  Bb
It's too late to apologize, it's too late
             Cm               Ab6        Eb  Bb
I said it's too late to apologize, it's too late

( Cm  Ab6  Eb  Bb )

[Segunda Parte]

     Cm                          Ab6
I'd take another chance, take a fall
                 Eb   Bb
Take a shot for you
       Cm                            Ab6
And I need you like a heart needs a beat
                 Eb  Bb
But it's nothin new
   Cm                    Ab6
I loved you with a fire red
                   Eb           Bb
Now it's turning blue, and you say
  Cm                    Ab6                     Eb
"Sorry" like the angel heaven let me think was you
    Bb
But I'm afraid

[Refrão]

      Cm               Ab6        Eb  Bb
It's too late to apologize, it's too late
             Cm               Ab6        Eb  Bb
I said it's too late to apologize, it's too late

( Cm  Ab6  Eb  Bb )
( Cm  Ab6  Eb  Bb )

[Refrão Final]

      Cm               Ab6        Eb  Bb    
It's too late to apologize, it's too late
             Cm               Ab6        Eb  Bb
I said it's too late to apologize, it's too late
          Cm           Ab6   Eb  Bb
It's too late to apologize, yeah
             Cm               Ab6   Eb  Bb
I said it's too late to apologize, yeah
     Cm                          Ab6              
I'm holdin on your rope, got me ten feet off the ground
00:00 / 00:00
Otros videos de esta canción
Repetir
Otros videos de esta canción
Composición de Ryan Tedder / Tim Mosley
16.540 vistas
    • ½ Tono
    • Am
    • Bbm
    • Bm
    • Cm
    • C#m
    • Dm
    • Ebm
    • Em
    • Fm
    • F#m
    • Gm
    • G#m
  • Agregar a la lista

    0 comentarios

    Ver todos los comentarios

    ¿Lograste tocar?

    49 Tocaron 6 Aún no

    ¡Graba un video tocando Apologize (feat. Timbaland) y envíanoslo!

    00:00 / 00:00
    OK