Cifra Club

Secrets

OneRepublic

Tablatura: Versão 3 (guitarra)
tono: D
Intro:
      D                             F#m
E|------------------------------------------------------------------|
B|------------------------------------------------------------------|
G|-----2---2-----------2---2-----------2---2-----------2---2--------|
D|---4---4---4---4---4---4---4---4---4---4---4---4---4---4---4---4--|
A|-5-----------5---5-----------5---4-----------4---4-----------4----|
E|------------------------------------------------------------------|
      Bm                              G
E|------------------------------------------------------------------|
B|------------------------------------------------------------------|
G|-----4-----------4---4---4-----------4---4-------------4----------|
D|---4---4---4---4---4---4---4---4----------------------------------|
A|-2-----------2---2-----------2-----5---5---5---5-----5---5--------|
E|---------------------------------3-----------3---3-----------3----|

               D
I need another story
                  F#m
Something to get off my chest
                    Bm
My life gets kinda boring
                       G
Need something that I can confess

             D
Til' all my sleeves are stained red
              F#m
From all the truth that I've said
           Bm
Come by it honestly I swear
                  G
Thought you saw a wink  no

I've been on the brink  so

Refrão:
     D     F#m    Bm      G              D
E|-2------2------2------3----3----3----2-|
B|-3------2------3------3----3----3----3-|
G|-2------2------4------4----4----4----2-|
D|-4------4------4------5-55-5-55-5-55-4-|
A|-5------4------2------5-55-5-55-5-55-5-|
E|----------------------3-33-3-33-3-33---|
                          PM   PM

           D
Tell me what you want from here
                     F#m
Something that were like those years
            Bm
Sick of all the insincere
                  G
So I'm gonna give all my secrets away
       D                        F#m
This time  don't need another perfect line
                             Bm
Don't care if critics never jump in line
               G
I'm gonna give all my secrets away

    D                  F#m
My god  amazing how we got this far
                        Bm
It's like we're chasing all those stars
                    G
Who's driving shiny big black cars

        D
And everyday I see the news

All the problems that we could solve
             F#m
And when a situation rises

Just write it into an album
          Bm
Singing straight  too cold
                G
I don't really like my flow  no  so

(Riff do refrão)

           D
Tell me what you want from here
                     F#m
Something that were like those years
            Bm
Sick of all the insincere
                  G
So I'm gonna give all my secrets away
       D                        F#m
This time  don't need another perfect line
                             Bm
Don't care if critics never jump in line
               G
I'm gonna give all my secrets away

      D                             F#m
E|------------------------------------------------------------------|
B|------------------------------------------------------------------|
G|-----2---2-----------2---2-----------2---2-----------2---2--------|
D|---4---4---4-------4---4-------4---4---4---4-------4---4----------|
A|-5-----------5---5-----------5---4-----------4---4-----------4----|
E|------------------------------------------------------------------|

      Bm                              G
E|------------------------------------------------------------------|
B|------------------------------------------------------------------|
G|-----4---4-----------4---4-----------4---4------------------------|
D|---4---4---4-------4---4---4-------------------------5---5-------5|
A|-2-----------2---2-----------2-----5---5---5-------5---5---5---5--|
E|---------------------------------3-----------3---3-----------3----|

     D                         F#m
Oooh  got no reason  got not shame
                    Bm
Got no family I can blame
                   G
Just don't let me disappear

I'mma tell you everything

(Riff do refrão)
           D
Tell me what you want from here
                     F#m
Something that were like those years
            Bm
Sick of all the insincere
                  G
So I'm gonna give all my secrets away
       D                        F#m
This time  don't need another perfect line
                             Bm
Don't care if critics never jump in line
               G
I'm gonna give all my secrets away

           D
Tell me what you want from here
                     F#m
Something that were like those years
            Bm
Sick of all the insincere
                  G
So I'm gonna give all my secrets away
       D                        F#m
This time  don't need another perfect line
                             Bm
Don't care if critics never jump in line
               G
I'm gonna give all my secrets away

(Dedilhado 2x)

All my secrets away

All my secrets away.
Composição de Ryan Tedder
Colaboración y revision:
  • Lukie Lana
  • Anna Gabriella
  • Mihael Sousa
151 reproducciones
  • Simplificar cifra
    • ½ Tono
    • A
    • Bb
    • B
    • C
    • Db
    • D
    • Eb
    • E
    • F
    • F#
    • G
    • Ab
  • Adicionar à lista

    0 comentarios

    Ver todos os comentários

    ¿Conseguiste tocar?

    4 Tocaram 2 Ainda não

    Grave um vídeo tocando Secrets e nos envie!

    00:00 / 00:00
    outros vídeos desta música
    repetir qualidade Automático
    Outros vídeos desta música
    00:00 / 00:00
    Automático
    OK