Cifra Club

Não Vai Voltar

Onze:20

Tablatura: Principal
reproducciones 1.448
Tono: A
(afinação 1/2 tom abaixo)

Intro: D7M  A7M  F#m  E

Solo Intro:

   D7M(9)
E|-------0-------0-------0-------0----------|
B|---3-------3-------3-------3--------------|
G|-----6-------6-------6-------6------------|
D|-0----------------------------------------|
A|------------------------------------------|
E|------------------------------------------|

   A7M
E|-------0-------0-------0-------0----------|
B|---2-------2-------2-------2--------------|
G|-----1-------1-------1-------1------------|
D|------------------------------------------|
A|-0----------------------------------------|
E|------------------------------------------|

   F#m7(11)
E|-------0-------0-------0-------0----------|
B|---0-------0-------0-------0--------------|
G|-----2-------2-------2-------2------------|
D|------------------------------------------|
A|------------------------------------------|
E|-2----------------------------------------|

   E11
E|-------0-------0-------0-------0----------|
B|------------------------------------------|
G|---2-------2-------2-------2--------------|
D|-----6-------6-------6-------6------------|
A|------------------------------------------|
E|-0----------------------------------------|

Primeira Parte:

F#m
    Abro os meus olhos
         E
Hoje percebo que nada foi em vão
F#m
    O sol que arde
             E
Invade as janelas do coração
           D7M
E bate no peito e deixa sem jeito
              C#m7
E te faz lembrar uma bela canção
        Bm7
Porque hoje você faz doce
              E7(4/9)
E nem muda a cara pra pedir perdão

F#m
    Sei que por dentro
         E
Leva no peito toda desilusão
F#m
    Chora em segredo
            E
Sofre em silêncio, eu sei
       D7M
Que a vida vai ser bonita
         C#m7
E com o tempo eu volto a sorrir
     Bm7
E se ontem você fez doce
             E7(4/9)
Sei que amanhã não vai viver sem mim

Refrão:
                         D7M
Não sei por que você já pôs
                       A7M
Outra pessoa em meu lugar
                       F#m
Eu sinto que assim já foi
                   E
Mais fácil de aceitar
                   D7M
E mesmo se você mudar
                      A7M
Querer voltar, não adianta mais
                    F#m
Agora que você quebrou
                       E
Aquilo que não vai voltar

Intro: D7M  A7M  F#m  E

Segunda Parte:

F#m
    Abro os meus olhos
         E
Hoje percebo que nada foi em vão
F#m
    O sol que arde
             E
Invade as janelas do coração
              D7M
Eu sei que a vida vai ser bonita
         C#m7
E com o tempo eu volto a sorrir
     Bm7
E se ontem você fez doce
             E7(4/9)
Sei que amanhã não vai viver sem mim

Refrão 2x:
                         D7M
Não sei por que você já pôs
                       A7M
Outra pessoa em meu lugar
                       F#m
Eu sinto que assim já foi
                   E
Mais fácil de aceitar
                   D7M
E mesmo se você mudar
                      A7M
Querer voltar, não adianta mais
                    F#m
Agora que você quebrou
                       E
Aquilo que não vai voltar

Intro: D7M  A7M  F#m  E

(termina com fade out)
Acordes para:

    0 comentarios

      mostrar más comentarios

      ¿Conseguiste tocar?

      83tocaron2aún no

      ¡Graba un vídeo tocando Não Vai Voltar y envianoslo!

      00:00 / 00:00
      outros vídeos desta música
      repetirqualidadeautomática
      Outro vídeos desta música
        00:00 / 00:00
        automática
        Capítulos
        • Tocando a música
        • Dicas iniciais / Equipamentos
        • Afinação 1/2 to abaixo
        • Acordes da Introdução
        • Tocando Introdução
        • Ensinando Introdução (Solo)
        • Ensinando Introdução (Base)
        • Acordes da Primeira Parte
        • Tocando Primeira Parte
        • Ensinando Primeira Parte
        • Dicas da música
        • Tocando Refrão
        • Encerramento
        • Ficha técnica / Erros de gravação
        OK