Cifra Club

Querendo Te Encontrar

Onze:20

Cifrado: Principal (guitarra y guitarra eléctrica)
tono: Eb (con acordes en la forma de D) Capotraste en 1ª casa
[Primeira Parte]

Parte 1 de 4
  p.m.
E|------0---0-0-0---------------------------|
B|------3---3-3-3---------------------------|
G|---2--2---2-2-2---------------------------|
D|-0----0---0-0-0---------------------------|
A|------------------------------------------|
E|------------------------------------------|
   
Parte 1 de 4 - Variação
  p.m.
E|------0---0-0-0---------------------------|
B|------3---3-3-3---------------------------|
G|-2-2--2---2-2-2---------------------------|
D|-0-0--0---0-0-0---------------------------|
A|------------------------------------------|
E|------------------------------------------|

Parte 2 de 4
   D9/C#
E|------------------------------------------|
B|-x--3---3-3-3-3---------------------------|
G|-x--2---2-2-2-2---------------------------|
D|-x--0---0-0-0-0---------------------------|
A|-x--4---4-4-4-4---------------------------|
E|------------------------------------------|

Parte 3 de 4
   Bm7
E|------------------------------------------|
B|---3-----3--3-3-3-------------------------|
G|-2-2-2---2--2-2-2-------------------------|
D|-0---0---0--0-0-0-------------------------|
A|-2---2---2--2-2-2-------------------------|
E|------------------------------------------|

Parte 4 de 4
   G9
E|------------------------------------------|
B|-x------0-0-0-0---------------------------|
G|-x--2---2-2-2-2---------------------------|
D|-x--0---0-0-0-0---------------------------|
A|-x----------------------------------------|
E|-x--3---3-3-3-3---------------------------|

D9                 D9/C#
   Às vezes não consigo esquecer
Bm7          G9
    Daquele nosso amor
D9                  D9/C#
   Momentos tão incríveis com você
Bm7                 G9
    Que o tempo não apagou
D9               D9/C#
   É como num romance de cinema
Bm7                G9
    Minha paixão, você chegou
D9                 D9/C#
   O seu olhar pra mim é um poema
Bm7                 G9
    Minha canção de amor

[Segunda Parte]

Parte 1 de 4
   Bm11           F#m7
E|-------0----------------------------------|
B|---------3------------2-0-----------------|
G|-----4-----4-0------2-----2---------------|
D|---4--------------2---------0-------------|
A|-2----------------------------------------|
E|----------------2-------------------------|

Parte 2 de 4
   G9
E|------------------------------------------|
B|-------0--0-0-0--0------0-0-0-0-----------|
G|-------2--2-2-2--2------2-2-2-2-----------|
D|-0-0---0--0-0-0--0---0--0-0-0-0-----------|
A|------------------------------------------|
E|-3-3---3--3-3-3--3---3--3-3-3-3-----------|

Parte 2 de 4 - Variação
   G9
E|------------------------------------------|
B|-------0---------------0-0-0-0------------|
G|-----2---2---2---------2-2-2-2------------|
D|---0-------0---0----0--0-0-0-0------------|
A|------------------------------------------|
E|-3------------------3--3-3-3-3------------|

Parte 3 de 4
   Bm11           F#m7
E|-------0----------------------------------|
B|---------3------------2-0-----------------|
G|-----4-----4-0------2-----2---------------|
D|---4--------------2---------0-------------|
A|-2----------------------------------------|
E|----------------2-------------------------|

Parte 4 de 4
   G9              A9
E|------------------------0-0-0-0-----------|
B|-------0--0-0-0--x------0-0-0-0-----------|
G|-------2--2-2-2--x---6--6-6-6-6-----------|
D|-0-0---0--0-0-0--x---7--7-7-7-7-----------|
A|-----------------x---7--7-7-7-7-----------|
E|-3-3---3--3-3-3--x---5--5-5-5-5-----------|

Parte 4 de 4 - Variação
   G9              A9
E|------------------------------------------|
B|-------0------------0-0-------0-0---------|
G|-----2---2-------6--6-6---6---6-6---------|
D|---0-------0-----7--7-7---7---7-7---------|
A|-----------------7--7-7---7---7-7---------|
E|-3---------------5--5-5---5---5-5---------|

Bm11                    F#m7
     Não sei por quê essa saudade 
    G9
Só faz me maltratar
Bm11                  F#m7
     Será que um dia nos meus sonhos
   G9            A9
Você vem me acordar

[Refrão]

D9                 A9
   O seu amor pra mim é tudo
Bm7(11)                   G9
        Eu não vou te perder, eu juro
D9                A9
   Preciso tanto dos seus beijos
Em7(9)                   G9
       Menina, eu tô querendo te encontrar
D9    D9/C#    Bm7
   Ah,      Ah
          G9
Eu tô querendo te encontrar
D9    D9/C#    Em7
   Ah,      Ah

[Primeira Parte]

D9                  D9/C#
   Às vezes não consigo esquecer
Bm7          G9
    Daquele nosso amor
D9                  D9/C#
   Momentos tão incríveis com você
Bm7                 G9
    Que o tempo não apagou

[Segunda Parte]

Bm11                    F#m7
     Não sei por quê essa saudade 
    G9
Só faz me maltratar
Bm11                  F#m7
     Será que um dia nos meus sonhos
   G9            A9
Você vem me acordar

[Refrão Final]

D9                 A9
   O seu amor pra mim é tudo
Bm7(11)                   G9
        Eu não vou te perder, eu juro
D9                A9
   Preciso tanto dos seus beijos
Em7(9)                   G9             E  G9
       Menina, eu tô querendo te encontrar
                         E  G9
Eu tô querendo te encontrar
                    Bm7(11)
Não faz assim, não sei viver
     A9           G9
Sem ter você pra mim

D9                 A9
   O seu amor pra mim é tudo
Bm7(11)                   G9
        Eu não vou te perder, eu juro
D9                A9
   Preciso tanto dos seus beijos
Em    Em/F#          Em/G       A9
   Menina, eu tô querendo te encontrar

[Tab - Passagem]

   Em      Em/F#     Em/G      A9
E|----0--------0---------0-----0-0-0-0--0---|
B|------0--------0---------0---0-0-0-0--0---|
G|-----------------------------6-6-6-6--6---|
D|-----------2---------2-------7-7-7-7--7---|
A|-----------------------------7-7-7-7--7---|
E|-0-------2---------3---------5-5-5-5--5---|

D9                 A9
   O seu amor pra mim é tudo
Bm7(11)                   G9
        Eu não vou te perder, eu juro
D9                A9
   Preciso tanto dos seus beijos
Em7(9)                   G9
       Menina, eu tô querendo te encontrar

D9    D9/C#    Em7(9)
   Ah,      Ah
          G9
Eu tô querendo te encontrar
D9    A9    Em7(9)
   Ah,   Ah
00:00 / 00:00
Otros videos de esta canción
Repetir
Otros videos de esta canción
Composición de Fábio Mendes / Guga Fernandes / Marlos Vinícius / Vitin
Colaboración y revisión:
3.188 vistas
  • Simplificar cifrado
    • ½ Tono
    • A
    • Bb
    • B
    • C
    • Db
    • D
    • Eb
    • E
    • F
    • F#
    • G
    • Ab
  • Agregar a la lista

    0 comentarios

    Ver todos los comentarios

    ¿Lograste tocar?

    23 Tocaron 3 Aún no

    ¡Graba un video tocando Querendo Te Encontrar y envíanoslo!

    00:00 / 00:00
    Capítulos
    • Tocando a Música
    • Dicas Iniciais / Equipamentos
    • Acordes da Primeira Parte
    • Tocando a Primeira Parte
    • Primeira Parte - Parte 1 de 4
    • Primeira Parte - Parte 2 de 4
    • Primeira Parte - Parte 3 de 4
    • Primeira Parte - Parte 4 de 4
    • Acordes da Segunda Parte
    • Tocando a Segunda Parte
    • Segunda Parte - Parte 1 de 4
    • Segunda Parte - Parte 2 de 4
    • Segunda Parte - Parte 3 de 4
    • Segunda Parte - Parte 4 de 4
    • Acordes do Refrão
    • Tocando os Acordes
    • Ensinando o Ritmo do Refrão
    • Acordes do Último Refrão
    • Tocando o Último Refrão
    • Ensinando o Ritmo do Último Refrão
    • Ensinando a Passagem
    • Encerramento
    • Ficha Técnica
    OK