Cifra Club

Vem Morena

Onze:20

Cifrado: Principal (guitarra y guitarra eléctrica)
tono: B (con acordes en la forma de C) Afinación: Eb Ab Db Gb Bb Eb
[Intro] Fm  G7  C7+  G7M  D#°  G  Cm6

Parte 1 de 2

       Fm           G7       C7+          G7M
E|----7------------3-x-3----3------------x-x-x----|
B|----8-7h8p7------3-x-3----5-3h5p3------3-x-3----|
G|----9-------9-7--4-x-4----4---------4--4-x-4----|
D|----9------------3-x-3----5-------5----4-x-4----|
A|--7-7------------5-x-5--3-3------------x-x-x----|
E|-----------------3-x-3-----------------3-x-3----|

Parte 2 de 2

       D#°          G        Cm6
E|----x------------3-x-3----x---------------------|
B|----7------------3-x-3----8---------------------|
G|----5-5---5-5/7--4-x-4----8-5-4-----------------|
D|----7---7--------5-x-5----7-----7-5-------------|
A|--6-6------------5-x-5----x---------------------|
E|-----------------3-x-3--8-8---------------------|

G                 G7
  A chuva já não cai
                          C7+
Faz tempo aqui no meu sertão
           Cm6                      G
Agora ta pior ter que viver na solidão
                G7
A seca que maltrata
                   C7+
Cada parte desse chão
                   Cm6
Resseca, quebra e mata
                 G
Agora o meu coração

                G7
A chuva já não cai
                          C7+
Faz tempo aqui no meu sertão
          Cm6                       G
Agora ta pior ter que viver na solidão
                G7
A seca que maltrata
                   C7+
Cada parte desse chão
                   Cm6
Resseca, quebra e mata
                      G
Então porque você não
           C7+
Chega pra cá
                G
Sozinho não da não
          C7+
Vem cá morena
                       G
Eu vou ganhar teu coração
           C7+
Chega pra cá
                G
Sozinho não da não
          C7+
Vem cá morena
                       A7  Cm6
Eu vou te dar meu coração
                     G   G7
Eu vou te dar meu coração
                  A7   Cm6
Vou te dar meu coração
              G
Te dar meu coração

Parte 1 de 2

       Fm           G7       C7+          G7M
E|----7------------3-x-3----3------------x-x-x----|
B|----8-7h8p7------3-x-3----5-3h5p3------3-x-3----|
G|----9-------9-7--4-x-4----4---------4--4-x-4----|
D|----9------------3-x-3----5-------5----4-x-4----|
A|--7-7------------5-x-5--3-3------------x-x-x----|
E|-----------------3-x-3-----------------3-x-3----|

Parte 2 de 2

       D#°          G        Cm6
E|----x------------3-x-3----x---------------------|
B|----7------------3-x-3----8---------------------|
G|----5-5---5-5/7--4-x-4----8-5-4-----------------|
D|----7---7--------5-x-5----7-----7-5-------------|
A|--6-6------------5-x-5----x---------------------|
E|-----------------3-x-3--8-8---------------------|

G                G7
  Agora em São Paulo
                  C7+
Eu só penso em você
             Cm6
Eu tava na pior
                      G
E esqueci de te esquecer
                G7
Aí pro meu sertão
                         C7+
Eu já não posso mais voltar
                 Cm6
Vou te pedir de novo
                     G
Então porque você não
           C7+
Chega pra cá
                G
Sozinho não da não
          C7+
Vem cá morena
                       G
Eu vou ganhar teu coração
           C7+
Chega pra cá
                G
Sozinho não da não
          C7+
Vem cá morena
                       A7  Cm6
Eu vou te dar meu coração
                       G  G7
Eu vou te dar meu coração
                  A7   Cm6
Vou te dar meu coração
              G    F6(9) Em7  Cm9
Te dar meu coração

G           F6(9)
  Oh chuva cai
             C9
Molha esse chão
          Cm9       G
E faz brotar esse amor
          F6(9)
Oh chuva cai
             C9
Molha esse chão
        Cm9
E faz brotar
G           F
  Oh chuva cai
             Em7
Molha esse chão
        Cm9            G
E faz brotar esse amor
          F6(9)
Oh chuva cai
             Em7
Molha esse chão
          Cm9
E faz brotar
Faz brotar
                  G   F  Em7  Cm9
Faz brotar esse amor

( G  F6(9)  Em7  Cm9  G )
Composición de Fábio Mendes / Marlos Vinícius / Vitin
Colaboración y revisión:
  • Lucas Kappaun
  • Wolfgang Alexandre
  • Jamesson Moraes
80 vistas
    • ½ Tono
    • A
    • Bb
    • B
    • C
    • Db
    • D
    • Eb
    • E
    • F
    • F#
    • G
    • Ab
  • Agregar a la lista

    0 comentarios

    Ver todos los comentarios

    ¿Lograste tocar?

    2 Tocaron 0 Aún no

    ¡Graba un video tocando Vem Morena y envíanoslo!

    00:00 / 00:00
    Outros vídeos desta música
    Repetir Calidad Automático
    Outros vídeos desta música
    00:00 / 00:00
    Automático
    OK