Cifra Club

Dein Weg

Oomph!

Cifrado: Principal (guitarra y guitarra eléctrica)
tono: Db
intro

guitar one
D|-------------------------------------|
A|-------------------------------------|
F|-------------------------------------|
C|---7-7-7-7-5-5-5-5-0-0-0-0-2-2-2-2---|x4
G|---7-7-7-7-5-5-5-5-0-0-0-0-2-2-2-2---|
C|---7-7-7-7-5-5-5-5-0-0-0-0-2-2-2-2---|

guitar two
D|-------------------------------------|
A|-------------------------------------|
F|-------------------------------------|
C|------7-9-7---9-10-7------7-9-7---9--|x4
G|--7-9-----------------7-9------------|
C|-------------------------------------|

Verse:
softly
D|--------------|
A|--------------|
F|--------------|
C|--------------|x8
G|---8-7--7-7---|
C|--------------|

Pre Chorus
D|-------------------------------------------------------------------|
A|-------------------------------------------------------------------|
F|-------------------------------------------------------------------|
C|---3-3-3-3-3-3-3-3-6-6-6-6-6-6-6-6-7-7-7-7-7-7-7-7-2-2-2-2-2-2-2-2-|x2
G|---3-3-3-3-3-3-3-3-6-6-6-6-6-6-6-6-7-7-7-7-7-7-7-7-2-2-2-2-2-2-2-2-|
C|---3-3-3-3-3-3-3-3-6-6-6-6-6-6-6-6-7-7-7-7-7-7-7-7-2-2-2-2-2-2-2-2-|

Chorus
D|-------------------------------------------------------------------|
A|-------------------------------------------------------------------|
F|-------------------------------------------------------------------|
C|---7-7-----5-5-----0-0-0-0-2-2-2-2-7-7-7-7-5-5-5-5-0-0-0-0-2-2-2-2-|x2
G|---7-7-----5-5-----0-0-0-0-2-2-2-2-7-7-7-7-5-5-5-5-0-0-0-0-2-2-2-2-|
C|---7-7-----5-5-----0-0-0-0-2-2-2-2-7-7-7-7-5-5-5-5-0-0-0-0-2-2-2-2-|

Pre-Verse

guitar one
D|-------------------------------------|
A|-------------------------------------|
F|-------------------------------------|
C|---7-7-7-7-5-5-5-5-0-0-0-0-2-2-2-2---|x4
G|---7-7-7-7-5-5-5-5-0-0-0-0-2-2-2-2---|
C|---7-7-7-7-5-5-5-5-0-0-0-0-2-2-2-2---|

guitar two
D|-------------------------------------|
A|-------------------------------------|
F|-------------------------------------|
C|------7-9-7---9-10-7------7-9-7---9--|x4
G|--7-9-----------------7-9------------|
C|-------------------------------------|

Verse:

softly
D|--------------|
A|--------------|
F|--------------|
C|--------------|x8
G|---8-7--7-7---|
C|--------------|

Pre Chorus
D|-------------------------------------------------------------------|
A|-------------------------------------------------------------------|
F|-------------------------------------------------------------------|
C|---3-3-3-3-3-3-3-3-6-6-6-6-6-6-6-6-7-7-7-7-7-7-7-7-2-2-2-2-2-2-2-2-|x2
G|---3-3-3-3-3-3-3-3-6-6-6-6-6-6-6-6-7-7-7-7-7-7-7-7-2-2-2-2-2-2-2-2-|
C|---3-3-3-3-3-3-3-3-6-6-6-6-6-6-6-6-7-7-7-7-7-7-7-7-2-2-2-2-2-2-2-2-|

Chorus
D|-------------------------------------------------------------------|
A|-------------------------------------------------------------------|
F|-------------------------------------------------------------------|
C|---7-7-----5-5-----0-0-0-0-2-2-2-2-7-7-7-7-5-5-5-5-0-0-0-0-2-2-2-2-|x2
G|---7-7-----5-5-----0-0-0-0-2-2-2-2-7-7-7-7-5-5-5-5-0-0-0-0-2-2-2-2-|
C|---7-7-----5-5-----0-0-0-0-2-2-2-2-7-7-7-7-5-5-5-5-0-0-0-0-2-2-2-2-|


Interlude
guitar one
D|-------------------------------------|
A|-------------------------------------|
F|-------------------------------------|
C|---7-7-7-7-5-5-5-5-0-0-0-0-2-2-2-2---|
G|---7-7-7-7-5-5-5-5-0-0-0-0-2-2-2-2---|
C|---7-7-7-7-5-5-5-5-0-0-0-0-2-2-2-2---|

guitar two
D|-------------------------------------|
A|-------------------------------------|
F|-------------------------------------|
C|------7-9-7---9-10-7------7-9-7---9--|
G|--7-9-----------------7-9------------|
C|-------------------------------------|

Pre Chorus
D|-------------------------------------------------------------------|
A|-------------------------------------------------------------------|
F|-------------------------------------------------------------------|
C|---3-3-3-3-3-3-3-3-6-6-6-6-6-6-6-6-7-7-7-7-7-7-7-7-2-2-2-2-2-2-2-2-|x2
G|---3-3-3-3-3-3-3-3-6-6-6-6-6-6-6-6-7-7-7-7-7-7-7-7-2-2-2-2-2-2-2-2-|
C|---3-3-3-3-3-3-3-3-6-6-6-6-6-6-6-6-7-7-7-7-7-7-7-7-2-2-2-2-2-2-2-2-|

Outro

D|-------------|
A|-------------|
F|-10-9--9-9---|x8
C|-10-9--9-9---|
G|-8--7--7-7---|
C|-------------|

Composición de Oomph!
15 vistas
    • ½ Tono
    • A
    • Bb
    • B
    • C
    • Db
    • D
    • Eb
    • E
    • F
    • F#
    • G
    • Ab
  • Agregar a la lista

    0 comentarios

    Ver todos los comentarios

    ¿Lograste tocar?

    0 Tocaron 0 Aún no

    ¡Graba un video tocando Dein Weg y envíanoslo!

    00:00 / 00:00
    Outros vídeos desta música
    Repetir Calidad Automático
    Outros vídeos desta música
    00:00 / 00:00
    Automático
    OK