Cifra Club

Die Letzte Streichholz

Oomph!

Cifrado: Principal (guitarra y guitarra eléctrica)
tono: A
intro:
d|--13-----------------|
A|-----13-14-11-13-14--|
F|---------------------|
C|---------------------|
G|---------------------|
C|---------------------|

Verse:
d|--13----------------12-----------------|
A|-----13-14-11-13-14----13-14-11-13-14--|
F|---------------------------------------|
C|---------------------------------------|
G|---------------------------------------|x4
C|---------------------------------------|

d|--11----------------------------|
A|-----14-13----13----------------|
F|-----------13----13---------10--|
C|----------------------13-11-----|
G|--------------------------------|
C|--------------------------------|

Chorus
d|-------------------------------------------------------------------------|
A|-------------------------------------------------------------------------|
F|-------------------------------------------------------------------------|
C|--8-8-8-8-8-8-8-8-8-8-8-8-8-8-8-8-4-4-4-4-4-4-4-4-4-4-4-4-4-4-4-4--------|
G|--8-8-8-8-8-8-8-8-8-8-8-8-8-8-8-8-4-4-4-4-4-4-4-4-4-4-4-4-4-4-4-4--------|
C|--8-8-8-8-8-8-8-8-8-8-8-8-8-8-8-8-4-4-4-4-4-4-4-4-4-4-4-4-4-4-4-4--------|

d|-------------------------------------------------------------------------|
A|-------------------------------------------------------------------------|
F|-------------------------------------------------------------------------|
C|--6-6-6-6-6-6-6-6-6-6-6-6-6-6-6-6-1-1-1-1-1-1-1-1-1-1-1-1-1-1-1-1--------|
G|--6-6-6-6-6-6-6-6-6-6-6-6-6-6-6-6-1-1-1-1-1-1-1-1-1-1-1-1-1-1-1-1--------|
C|--6-6-6-6-6-6-6-6-6-6-6-6-6-6-6-6-1-1-1-1-1-1-1-1-1-1-1-1-1-1-1-1--------|

Verse:
d|--13----------------12-----------------|
A|-----13-14-11-13-14----13-14-11-13-14--|
F|---------------------------------------|
C|---------------------------------------|
G|---------------------------------------|x2
C|---------------------------------------|

d|--11----------------------------|
A|-----14-13----13----------------|
F|-----------13----13---------10--|
C|----------------------13-11-----|
G|--------------------------------|
C|--------------------------------|

Chorus x2
d|-------------------------------------------------------------------------|
A|-------------------------------------------------------------------------|
F|-------------------------------------------------------------------------|
C|--8-8-8-8-8-8-8-8-8-8-8-8-8-8-8-8-4-4-4-4-4-4-4-4-4-4-4-4-4-4-4-4--------|
G|--8-8-8-8-8-8-8-8-8-8-8-8-8-8-8-8-4-4-4-4-4-4-4-4-4-4-4-4-4-4-4-4--------|
C|--8-8-8-8-8-8-8-8-8-8-8-8-8-8-8-8-4-4-4-4-4-4-4-4-4-4-4-4-4-4-4-4--------|

d|-------------------------------------------------------------------------|
A|-------------------------------------------------------------------------|
F|-------------------------------------------------------------------------|
C|--6-6-6-6-6-6-6-6-6-6-6-6-6-6-6-6-1-1-1-1-1-1-1-1-1-1-1-1-1-1-1-1--------|
G|--6-6-6-6-6-6-6-6-6-6-6-6-6-6-6-6-1-1-1-1-1-1-1-1-1-1-1-1-1-1-1-1--------|
C|--6-6-6-6-6-6-6-6-6-6-6-6-6-6-6-6-1-1-1-1-1-1-1-1-1-1-1-1-1-1-1-1--------|

Bridge:
d|--13-----------------|
A|-----13-14-11~-------|
F|---------------------|
C|---------------------|
G|---------------------|
C|---------------------|

(Heavily Palm Muted)
d|-----------------------------------|
A|-----------------------------------|
F|--9-9-9-5-5-5-8-8-8-3-3-3-3-3-3-3--|
C|--9-9-9-5-5-5-8-8-8-3-3-3-3-3-3-3--|
G|--7-7-7-3-3-3-6-6-6-1-1-1-1-1-1-1--|
C|-----------------------------------|
PM. . . . . . . . . . . . . . . . .

Chorus x2
d|-------------------------------------------------------------------------|
A|-------------------------------------------------------------------------|
F|-------------------------------------------------------------------------|
C|--8-8-8-8-8-8-8-8-8-8-8-8-8-8-8-8-4-4-4-4-4-4-4-4-4-4-4-4-4-4-4-4--------|
G|--8-8-8-8-8-8-8-8-8-8-8-8-8-8-8-8-4-4-4-4-4-4-4-4-4-4-4-4-4-4-4-4--------|
C|--8-8-8-8-8-8-8-8-8-8-8-8-8-8-8-8-4-4-4-4-4-4-4-4-4-4-4-4-4-4-4-4--------|

d|-------------------------------------------------------------------------|
A|-------------------------------------------------------------------------|
F|-------------------------------------------------------------------------|
C|--6-6-6-6-6-6-6-6-6-6-6-6-6-6-6-6-1-1-1-1-1-1-1-1-1-1-1-1-1-1-1-1--------|
G|--6-6-6-6-6-6-6-6-6-6-6-6-6-6-6-6-1-1-1-1-1-1-1-1-1-1-1-1-1-1-1-1--------|
C|--6-6-6-6-6-6-6-6-6-6-6-6-6-6-6-6-1-1-1-1-1-1-1-1-1-1-1-1-1-1-1-1--------|

Outro:
d|--13-----------------|
A|-----13-14-11~-------|
F|---------------------|
C|---------------------|
G|---------------------|
C|---------------------|
00:00 / 00:00
Otros videos de esta canción
Repetir
Otros videos de esta canción
Composición de Oomph!
18 vistas
    • ½ Tono
    • A
    • Bb
    • B
    • C
    • Db
    • D
    • Eb
    • E
    • F
    • F#
    • G
    • Ab
  • Agregar a la lista

    0 comentarios

    Ver todos los comentarios

    ¿Lograste tocar?

    0 Tocaron 0 Aún no

    ¡Graba un video tocando Die Letzte Streichholz y envíanoslo!

    00:00 / 00:00
    OK