Cifra Club

Ego

Oomph!

Tab de bajo: Principal
(refrão 2x)
G|-------------------------------------------------------------------------|
D|-------------------------------------------------------------------------|
A|-------------------------------------------------------------------------|
D|--2-2-2-2-5-5-5-5-0-0-0-0-7-7-7-7-2-2-2-2-5-5-5-5-0-0-0-0-7-7-7-7--------|

(refrão 2x)
G|-------------------------------------------------------------------------|
D|-------------------------------------------------------------------------|
A|-------------------------------------------------------------------------|
D|--2-2-2-2-5-5-5-5-0-0-0-0-7-7-7-7-2-2-2-2-5-5-5-5-0-0-0-0-7-7-7-7--------|

(último refrão)
G|-------------------------------------------------------------------------|
D|-------------------------------------------------------------------------|
A|-------------------------------------------------------------------------|
D|------------------0-0-0-0-7-7-7-7-2-2-2-2-5-5-5-5-0-0-0-0-7-7-7-7--------|

G|-------------------------------------------------------------------------|
D|-------------------------------------------------------------------------|
A|-------------------------------------------------------------------------|
D|--2-2-2-2-5-5-5-5-0-0-0-0-7-7-7-7-2-2-2-2-5-5-5-5-0-0-0-0-7-7-7-7--------|

G|-------------------------------------------------------------------------|
D|-------------------------------------------------------------------------|
A|-------------------------------------------------------------------------|
D|--2-2-2-2-5-5-5-5-0-0-0-0-7-7-7-7-2-2-2-2-5-5-5-5-0-0-0-0-7-7-7-7--------|
00:00 / 00:00
Otros videos de esta canción
Repetir
Otros videos de esta canción
Composición de Oomph!
Colaboración y revisión:
  • Paulo Ricardo
17 vistas

0 comentarios

Ver todos los comentarios

¿Lograste tocar?

1 Tocaron 0 Aún no

¡Graba un video tocando Ego y envíanoslo!

00:00 / 00:00
OK