Cifra Club

Aprenda

Nichts Ist Kalter Als Deine Liebe

Oomph!

Tablatura: Principal (guitarra)
tono: F
Intro part One:

acoustic
e|-------------------------------------------------------------------------|
B|-------------------------------------------------------------------------|
G|-------------------------------------------------------------------------|
D|-------------------------------------------------------------------------|
A|-------------------------------------------------------------------------|
D|--13-0-0-13-0-0-13-0-0-13-0-0-13-0-0-13-0-0-13-0-0-13-0-0----------------|

Intro Part Two:

electric
e|-------------------------------------------------------------|
B|-------------------------------------------------------------|
G|-------------------------------------------------------------|
D|-------------------------------------------------------------|
A|------------------------6----------------------------6-------|
D|--13-000-13-0-00-13-000---0-00-13-000-13-0-00-13-000---0-00--|

e|-------------------------------------------------------------|
B|-------------------------------------------------------------|
G|-------------------------------------------------------------|
D|-------------------------------------------------------------|
A|------------------------6------------------------------------|
D|--13-000-13-0-00-13-000---0-00-13-000-13-0-00----------------|

Verse Part 1

acoustic
e|------------------------------------------------------------|
B|------------------------------------------------------------|
G|------------------------------------------------------------|
D|------------------------------------------------------------|x2
A|------------------------------------------------------------|
D|--13-0-0-13-0-0-13-0-0-13-0-0-13-0-0-13-0-0-13-0-0-13-0-0---|

Verse Part 2

electric
e|-------------------------------------------------------------|
B|-------------------------------------------------------------|
G|-------------------------------------------------------------|
D|-------------------------------------------------------------|x2
A|------------------------6----------------------------6-------|
D|--13-000-13-0-00-13-000---0-00-13-000-13-0-00-13-000---0-00--|

Prechorus

e|----------------------|
B|----------------------|
G|---77---77---77---77--|
D|---77---77---77---77--|x3
A|---55---55---55---55--|
D|---00---00---00---00--|

e|----------------------|
B|----------------------|
G|---77---77---77-------|
D|---77---77---77-------|
A|---55---55---55-------|
D|---00---00---00-------|

Chorus
e|--------------------------------|
B|--------------------------------|
G|----7----5----2----10---5----2--|
D|----7----5----2----10---5----2--|x4
A|----5----3----0----8----3----0--|
D|--------------------------------|

Pre-verse

electric
e|-------------------------------------------------------------|
B|-------------------------------------------------------------|
G|-------------------------------------------------------------|
D|-------------------------------------------------------------|
A|------------------------6----------------------------6-------|
D|--13-000-13-0-00-13-000---0-00-13-000-13-0-00-13-000---0-00--|

e|-------------------------------------------------------------|
B|-------------------------------------------------------------|
G|-------------------------------------------------------------|
D|-------------------------------------------------------------|
A|------------------------6------------------------------------|
D|--13-000-13-0-00-13-000---0-00-13-000-13-0-00----------------|

Verse Part 1

acoustic
e|------------------------------------------------------------|
B|------------------------------------------------------------|
G|------------------------------------------------------------|
D|------------------------------------------------------------|x2
A|------------------------------------------------------------|
D|--13-0-0-13-0-0-13-0-0-13-0-0-13-0-0-13-0-0-13-0-0-13-0-0---|

Verse Part 2

electric
e|-------------------------------------------------------------|
B|-------------------------------------------------------------|
G|-------------------------------------------------------------|
D|-------------------------------------------------------------|x2
A|------------------------6----------------------------6-------|
D|--13-000-13-0-00-13-000---0-00-13-000-13-0-00-13-000---0-00--|

Prechorus

e|----------------------|
B|----------------------|
G|---77---77---77---77--|
D|---77---77---77---77--|x3
A|---55---55---55---55--|
D|---00---00---00---00--|

e|----------------------|
B|----------------------|
G|---77---77---77-------|
D|---77---77---77-------|
A|---55---55---55-------|
D|---00---00---00-------|

Chorus
e|--------------------------------|
B|--------------------------------|
G|----7----5----2----10---5----2--|
D|----7----5----2----10---5----2--|x4
A|----5----3----0----8----3----0--|
D|--------------------------------|

Bridge

acoustic
e|---------------------------------------------------------|
B|---------------------------------------------------------|
G|----7-77--555---2-2222222---10-10101010---555--7-7777777-|x3
D|----7-77--555---2-2222222---10-10101010---555--7-7777777-|
A|----5-55--333---0-0000000---8--8-8-8-8----333--5-5555555-|
D|---------------------------------------------------------|

e|---------------------------------------------------------|
B|---------------------------------------------------------|
G|----7-77--555---2-2222222---10-10101010---555--7---------|
D|----7-77--555---2-2222222---10-10101010---555--7---------|
A|----5-55--333---0-0000000---8--8-8-8-8----333--5---------|
D|---------------------------------------------------------|

Electric
e|--------------------------------|
B|--------------------------------|
G|----7----5----2----10---5----2--|
D|----7----5----2----10---5----2--|x5
A|----5----3----0----8----3----0--|
D|--------------------------------|

e|--------------------------------|
B|--------------------------------|
G|----7----5----2----10---5-------|
D|----7----5----2----10---5-------|
A|----5----3----0----8----3-------|
D|--------------------------------|





Composição de Oomph!
16 reproducciones
    • ½ Tono
    • A
    • Bb
    • B
    • C
    • Db
    • D
    • Eb
    • E
    • F
    • F#
    • G
    • Ab
  • Adicionar à lista

    0 comentarios

    Ver todos os comentários

    ¿Conseguiste tocar?

    0 Tocaram 0 Ainda não

    Grave um vídeo tocando Nichts Ist Kalter Als Deine Liebe e nos envie!

    00:00 / 00:00
    outros vídeos desta música
    repetir qualidade Automático
    Outros vídeos desta música
    00:00 / 00:00
    Automático
    OK