Cifra Club

Supernova

Oomph!

Cifrado: Principal (guitarra y guitarra eléctrica)
Selo Cifra Club: esta cifra foi revisada para atender aos critérios oficiais da nossa Equipe de Qualidade.
tono: Db
Intro
E|--------------|
B|--------------|
G|-4--6----7--6-|
D|-4--4----4--4-|
A|--------------|
E|--------------|

Distortion Part
E|--------------------------------------------------|
B|--------------------------------------------------|
G|--------------------------7-6-7-6-7-6-7-6---------|
D|---4-4---4----4---4---4---7-6-7-6-7-6-7-6---------|
A|---4-4---4----4---4---4---5-4-5-4-5-4-5-4-5-4-2-4-|
E|-0-2-2-0-2--0-2-0-2-0-2-0-------------------------|

Verse
E|------------|
B|-14--13--13-|
G|------------|
D|------------|
A|------------|
E|------------|


You can't start from...
Chords
E|---------|
B|---------|
G|-11--7---|
D|-11--7---|
A|--9--5---|
E|---------|

Keyboard
E|-------------|
B|-14-13-13----|
G|----------11-|
D|-------------|
A|-------------|
E|-------------|

2nd time Keyboard
E|-------------|
B|-14-16-13----|
G|----------11-|
D|-------------|
A|-------------|
E|-------------|

Where I end (Keyboard)
E|-------------|
B|-14-13-13----|
G|-------------|
D|-------------|
A|-------------|
E|-------------|

Where I end (Guitar)
E|--------------------------------|
B|--------------------------------|
G|--------------------------------|
D|-2-2--7-----------6-------------|
A|-2-2--7-----------6-------------|
E|-0-0--5-----------4-------------|

Chorus (2:00)
E|-----------------|
B|-----------------|
G|-----7-----------|
D|-9---7---7---6---|
A|-9---5---7---6---|
E|-7-------5---4---|


Other guitar part in Chorus (follows Dero)
2X
e|----------|
b-14-13-11-|
g----------|
d----------|
a----------|
e|----------|

Create a Supernova
e|---------------------|
b-13-11-13-11-13-11-9-|
g---------------------|
d---------------------|
a---------------------|
e|---------------------|
Otros videos de esta canción
    30 exhibiciones
      • ½ Tono
      • A
      • Bb
      • B
      • C
      • Db
      • D
      • Eb
      • E
      • F
      • F#
      • G
      • Ab
    • Agregar a la lista

    Afinación de cifrado

    Afinador online

      OK