Cifra Club

Aprenda

Abot Kamay

Orange and Lemons

Tab de bajo: Principal
Benj_tm
Tabbed By;BenjaminT.


its better if u use a pick ^_^
Intro
g|-----------------------------------------------------|
d|-----------------------------------------------------|
a|-----------------------------------------------------|x2
e|---4-444----------------2-222------------------------|

Verse 1
|--------------------------------------------------|
|--------------------------------------------------|
|--------------------------------------------------|
|----4-444--2-222---4-444-2-222--------------------|


Refrain:




|---------------------------------------------|
|---------------------------------------------|
|---------------------------------------------|
|--444-4/2-222/6666/2222----------------------|



Chorus:

|-----------------------------------------------------------------|
|-----------------------------------------------------------------|
|-----------------------------------------------------------------|
|-8-8-8-8-5-5-5-5--10-10-10-10--3-3-3-3---------------------------|


then verse 2 chorus then outro

8 reproducciones

0 comentarios

Ver todos os comentários

¿Conseguiste tocar?

0 Tocaram 0 Ainda não

Grave um vídeo tocando Abot Kamay e nos envie!

00:00 / 00:00
outros vídeos desta música
repetir qualidade Automático
Outros vídeos desta música
00:00 / 00:00
Automático
OK