Cifra Club

Aprenda

Hanggang Kailan

Orange and Lemons

Tablatura: Principal (guitarra)
tono: G
Tabbed By : Michael Monteros 


Intro
 #A-F-G
 #A-F-G

Legend:
v = Downward Strum
^ = Upward Strum

   v v^v v^v v^v  v v^v v^v v^vv v   v            Repeat2x  
D|-3-333-333-333--3-333-333-3335-5---5---|     |
A|-1-111-111-111--3-333-333-3335-5---5---|     |
E|----------------1-111-111-1112-3---3---|=====|

Verse
C-C#m-G
   v   v   v   v
e|-3---3---3---3--|
B|-5---4---3---3--|
G|-5---5---4---4--|
D|-5---5---5---5--|
A|-3---3---5---5--|
E|---------3---3--|

   v   v   vvvvvvvvvvvvv        
e|-3---3---3333333333333----|
B|-5---4---3333333333333----|
G|-5---5---4444444444444----|
D|-5---5---5555555555555----|
A|-3---3---5555555555555----|
E|---------3333333333333----|

Refrain
C-C#m-G

   v   v   v   v  v   vvvvvvvv
e|-3---3---3---3--3---33333333-|
B|-5---4---3---3--5---44444444-|
G|-5---5---4---4--5---55555555-|
D|-5---5---5---5--5---55555555-|
A|-3---3---5---5--3---33333333-|
E|---------3---3---------------|


Chorus
C-G-C-G-C-G-C#m-G
   v   v   v   v   v   v   v   v   v
e|-3---3---3---3---3---3---3---3---3-|
B|-5---3---5---3---5---3---4---3---3-|
G|-5---4---5---4---5---4---5---4---4-|
D|-5---5---5---5---5---5---5---5---5-|
A|-3---5---3---5---3---5---3---5---5-|
E|-----3-------3-------3-------3---3-|

Verse
C-C#m-G
   v   v   v   v
e|-3---3---3---3--|
B|-5---4---3---3--|
G|-5---5---4---4--|
D|-5---5---5---5--|
A|-3---3---5---5--|
E|---------3---3--|

   v   v   vvvvvvvvvvvvv       
e|-3---3---3333333333333----|
B|-5---4---3333333333333----|
G|-5---5---4444444444444----|
D|-5---5---5555555555555----|
A|-3---3---5555555555555----|
E|---------3333333333333----|

Refrain 
C-C#m-G

   v   v   v   v  v   vvvvvvvv   
e|-3---3---3---3--3---33333333-|
B|-5---4---3---3--5---44444444-|
G|-5---5---4---4--5---55555555-|
D|-5---5---5---5--5---55555555-|
A|-3---3---5---5--3---33333333-|
E|---------3---3---------------|


Chorus
C-G-C-G-C-G-C#m-G
   v   v   v   v   v   v   v   v   vvvvvvvv
e|-3---3---3---3---3---3---3---3---33333333-|
B|-5---3---5---3---5---3---4---3---33333333-|
G|-5---4---5---4---5---4---5---4---44444444-|
D|-5---5---5---5---5---5---5---5---55555555-|
A|-3---5---3---5---3---5---3---5---55555555-|
E|-----3-------3-------3-------3---33333333-|

   v   v   v   v   v   v   v   v   v
e|-3---3---3---3---3---3---3---3---3-|
B|-5---3---5---3---5---3---5---3---3-|
G|-5---4---5---4---5---4---5---4---4-|
D|-5---5---5---5---5---5---5---5---5-|
A|-3---5---3---5---3---5---3---5---5-|
E|-----3-------3-------3-------3---3-|

outro

   v v^v v^v v^v  v v^v v^v v^vv v   v          
e|-1-333-333-333--1-111-111-1113-3---3---|
B|-3-333-333-333--1-111-111-1113-3---3---| 
G|-3-333-333-333--2-222-222-2224-4---4---| 
D|-3-333-333-333--3-333-333-3335-5---5---| 
A|-1-111-111-111--3-333-333-3335-5---5---|     
E|----------------1-111-111-1113-3---3---|

   v v^v v^v v^v  v  v  v  v  v       
e|-1-333-333-333--1--3--3--3--3-|
B|-3-333-333-333--1--3--3--3--3-| 
G|-3-333-333-333--2--4--4--4--4-| 
D|-3-333-333-333--3--5--5--5--5-| 
A|-1-111-111-111--3--5--5--5--5-|     
E|----------------1--3--3--3--3-|

    v v^v v^v v^v  v v^v v^v v^v  v v^v v^v v^v  v v^v v^v v^v v
e|--3-333-333-333--3-333-333-333--3-333-333-333--3-333-333-333-3-|
B|--3-333-333-333--3-333-333-333--3-333-333-333--3-333-333-333-3-|
G|--4-444-444-444--4-444-444-444--4-444-444-444--4-444-444-444-4-|
D|--5-555-555-555--5-555-555-555--5-555-555-555--5-555-555-555-5-|
A|--5-555-555-555--5-555-555-555--5-555-555-555--5-555-555-555-5-|
E|--3-333-333-333--3-333-333-333--3-333-333-333--3-333-333-333-3-|

that's all.....listen 2 the song...2 get it right......

add nyo ko sa friendster...*

FRESHBREAKERS BAND:
Thirdy 
Reynan 
Michael(a.k.a NOX)
Deo
Francis
Erica




33 reproducciones
    • ½ Tono
    • A
    • Bb
    • B
    • C
    • Db
    • D
    • Eb
    • E
    • F
    • F#
    • G
    • Ab
  • Adicionar à lista

    0 comentarios

    Ver todos os comentários

    ¿Conseguiste tocar?

    0 Tocaram 0 Ainda não

    Grave um vídeo tocando Hanggang Kailan e nos envie!

    00:00 / 00:00
    outros vídeos desta música
    repetir qualidade Automático
    Outros vídeos desta música
    00:00 / 00:00
    Automático
    OK