Cifra Club

Aprenda

Yakap Sa Dilim

Orange and Lemons

Tablatura: Principal (guitarra)
tono: C
cnxa sa istorbo...
to tama na to....

intro:
verse 1:

sandal mo sana...   (timingan nio)
C7-F-Dm7-Gm 2x

mga problema...
C7-Am-Dm7

c#           c
bago tayo'y magkayakap sa dilim

verse 2:(do verse1 chords)

refrain:

 c#           c
bago tayo'y magkayakap sa dilim

Em7-A
eto na....

Em7-A
eto na tayo...

Dm7-G
oh kay sarap...

c#           c
habang tayo'y magkayakap sa dilim

adlib:
    

E-------------------------------------------------------|
B--------------------------------5-6-5---5-6-8-6-5------|
G-------------5---------------5-7------7------------55--|
D-----3-5-5/7--7-5-5h7p5-5-3------------------------77--|
A---5---------------------------------------------------|
E-------------------------------------------------------|

E--------------------------------------------------/10--|
B---6-5-----------------------------5-6-8-55-5-6-8------|
G------7-7p5-7---------------7-5------------------------|
D---------------7-5-3---7-5-3-----7---------------------|
A---------------------5---------------------------------|
E-------------------------------------------------------|

refrain:

c#           c
habang tayo'y magkayakap sa dilim

Em7-A
eto na....

Em7-A
eto na tayo...

Dm7-G
oh kay sarap....

c#            c            c#
habang tayo'y magkayakap sa dilim

verse3:(do verse1 chords)--one step higher--
 
outro:
d-c#


by: amielito esguerra
from: IV-San Juan

4 comments n suggestions 
mail me hir: *


18 reproducciones
    • ½ Tono
    • A
    • Bb
    • B
    • C
    • Db
    • D
    • Eb
    • E
    • F
    • F#
    • G
    • Ab
  • Adicionar à lista

    0 comentarios

    Ver todos os comentários

    ¿Conseguiste tocar?

    0 Tocaram 0 Ainda não

    Grave um vídeo tocando Yakap Sa Dilim e nos envie!

    00:00 / 00:00
    outros vídeos desta música
    repetir qualidade Automático
    Outros vídeos desta música
    00:00 / 00:00
    Automático
    OK