Cifra Club

Digital

Orgy

Cifrado: Principal (guitarra y guitarra eléctrica)
tono: F
Tabbed by: Sean Stinson

The new song by the gayest band on 
earth. I was up until 12 last night 
doing it.

Intro/Verse:
|------------------------------------|
|------------------------------------|
|------------------------------------|
|------------------------------------|
|------------------------------------|
|-10-8-10--10-8-10--8h13p8h13p8h13p8-|

Fill:
|----------------------------|
|----------------------------|
|----------------------------|
|-10-13--10-13---9-13--9-13--|
|-10-13--10-13---9-13--9-13--|
|-10-13--10-13---9-13--9-13--|

Prechorus: It's something like this.
I'm way too lazy to rewind the tape
and figure out the exact rhythm.
|----------------------------|
|----------------------------|
|----------------------------|
|-3-3-3---3---3-3--3-3-3-3---|
|-3-3-3---3---3-3--3-3-3-3---|
|-3-3-3---3---3-3--3-3-3-3---|

Chorus:
|-------------------------------|
|-------------------------------|
|-------------------------------|
|-3-3-3---6--6----8---8---1-1-1-|
|-3-3-3---6--6----8---8---1-1-1-|
|-3-3-3---6--6----8---8---1-1-1-|

Solo: Most of it is right, other than 
one part. But it's close. I spent 4
hours trying to get those three little 
notes right. There are echoes and phazers
and 2,000 other effects.
|-15--17--18--20--18--17---17-16---------------------|
|--------------------------------18p17h18p16h18p15---|
|----------------------------------------------------|
|----------------------------------------------------|
|----------------------------------------------------|
|----------------------------------------------------|

|---15--17--13--15-----|
|----------------------|
|----------------------|
|----------------------|
|----------------------|
|----------------------|

This one is pretty easy. I'm positive it's
right asides from the one part in the solo.
than you can shake a stick at.


Ta,
Sean Stinson
00:00 / 00:00
Otros videos de esta canción
Repetir
Otros videos de esta canción
Composición de Amir Derakh / Bobby Hewitt / Josh Abraham / Orgy / Paige Haley / Ryan Shuck
9 vistas
    • ½ Tono
    • A
    • Bb
    • B
    • C
    • Db
    • D
    • Eb
    • E
    • F
    • F#
    • G
    • Ab
  • Agregar a la lista

    0 comentarios

    Ver todos los comentarios

    ¿Lograste tocar?

    0 Tocaron 0 Aún no

    ¡Graba un video tocando Digital y envíanoslo!

    00:00 / 00:00
    OK