Cifra Club

Aprenda

Praia do Rosa (part. Cynthia Luz e Delacruz)

Oriente

Tablatura: Principal (guitarra)
tono: Am
[Intro] Am  Em  Am  Em  Dm  Em  Dm  E

[Violão 1]
 
   Am      Em
E|------------------------------------------|
B|-------1-------0--------------------------|
G|-----2-------0----------------------------|
D|---2-------2------------------------------|
A|-0----------------------------------------|
E|---------0--------------------------------|

   Am                   Em 
E|------------------------------------------|
B|-------1-------1-1h3--------0-0-----0-0h1-|
G|-----2-------2------------0-------0-------|
D|---2-------2------------2-------2---------|
A|-0-------0--------------------------------|
E|----------------------0-------0-----------|

   Dm                 Em
E|-------1----------------------------------|
B|-----3-------1-1h3--------0-------0-0h1---|
G|---2-------2------------0-------0---------|
D|-0-------0------------2-------2-----------|
A|------------------------------------------|
E|--------------------0-------0-------------|

   Dm                 E
E|-------1----------------------------------|
B|-----3-------1-1h3--------0-------0-0h1---|
G|---2-------2------------0-------0---------|
D|-0-------0------------1-------1-----------|
A|------------------------------------------|
E|--------------------0-------0-------------|

[Violão 2]

   Am         Em       Dm      Em
E|-------5----------7--12--10--10--7--------|
B|-----5---5------8----10--10--8---8--------|
G|---5----------7------10--10--7---7--------|
D|------------9--------12--12--9---9--------|
A|-0----------------------------------------|
E|------------------------------------------|

   Dm      E
E|-12--10--10-------------------------------|
B|-10--10--9---9----------------------------|
G|-10--10--9---9----------------------------|
D|-12--12--9---9----------------------------|
A|------------------------------------------|
E|------------------------------------------|

[Primeira Parte]

             Am
Na Praia do Rosa
                               Em
Jogada na canga, ela é maravilhosa
                   Am
E sabe que é gostosa
                     
Esquece o mundo lá fora
Em                                 
   E o som do mar vira trilha sonora
 Dm                                 
Ganhamos momentos e perdemos a hora
Em                
   É o poder do agora
Dm                        
   É, ela vem toda cheirosa
E
E o som do mar vira trilha sonora

           Am
De tanto que perdi o chão, eu aprendi a voar
       Em
Mesmo sem saber ao certo onde ia chegar
           Am
A luz me guia e ilumina mais um dia
        Em
Ela me faz tão bem, ela me faz tão bem
Dm
   Um pouco de calmaria pro meu corre
 Em
Na cidade grande, onde mata ou morre
Dm
Esses olho gordo querem tudo que eu tenho
       E
Nunca me adiantaram, então não atrasa, não fode

[Refrão]

Am                     Em
   Eu vi o caminho do sol
                      Am
Eu sigo o caminho da luz
                       Em
Eu sei que a gente tentou
                       Dm
Esse mar que me aproximou
    Em      Dm     E
De vez, de lei, você e eu, e eu

[Segunda Parte]

Am
   Entrega de alma
          Em                                        Am
Se chega pedindo perdão, perdoa antes que o dia acaba
                              Em
Pôr do sol é seu olhar, encanta o mar
                         Dm
E me aquece e a lua só cresce
                           Em
É questão de decidir e persistir
                                            Dm
Que a prece foi ouvida e tem a quem desacredita
                          E
Aqui a passagem de ida e vinda

Ilumina e faz amor sorrindo

Am
   Esconde esse segredo tão lindo
Em
   Eu já ia partir, tava escrito
Am
   Eu estive presente de longe
     Em                                 Dm
Não há nada nesse mundo que me encante mais
     Em   Dm  E
Não há, êiê

[Terceira Parte]

Am                    Em
   Me beijou e me chamou de super-herói
Am                  Em
   Então, ela me levou na Ponte Rio-Niterói
Dm               Em                                     Dm
   Só pra confirmar, me perguntou: você não disse que voava?
              E                             Am
Só pra me testar, ela me abraçou e pulou na água
                       Em
Ela não viu que era metáfora
                                  Am
Assim como essa, eu sei o que eu vi
                                    Em
No fim dessa história, que é muito boa
                                 Dm
Eu salvei você, fiquei com um finin
                              Em
Você não perde o seu tempo à toa
                           Dm
Já me mostrou, eu já entendi
                      E
Oriente, se você é a luz

Que o Delacruz roubou de mim

[Refrão]

Am                     Em
   Eu vi o caminho do sol
                      Am
Eu sigo o caminho da luz
                       Em
Eu sei que a gente tentou
                       Dm
Esse mar que me aproximou
    Em      Dm     E
De vez, de lei, você e eu, e eu

[Quarta Parte]

               Am
Nem a chuva relaxa, o mundo agora chora
 Em                              
Vamo pro lado de fora, vem, se molha
Am                                        Em
Ela me olha e parece que tenho alguma resposta
                                               Dm
Mas não tem nem pergunta, a gente meio que se gosta
                                         Em
Ontem queria que ela ficasse, mas foi embora
                                          Dm
Ela sabe o quanto vale, por isso que ela joga
                                            E
Eu tô aqui esperando, na esperança que ela volta

                               Am
Três dias de amor na Praia do Rosa
                                      Em
Estrela do Oriente aqui nos mares do Sul
                             Am
Só eu e você e a imensidão azul
                                   
Eu sei que ela acha que me deixa bobo
                          Em
Eu finjo que tô bobo só pra te agradar

Mas o jogador não te ama, ele ama o jogo
                Dm
Meu trem tá partindo, eu nasci pra cantar

Sexo de despedida, ela fica emotiva
     Em
Na briga, me esquenta, tão linda, tão braba

A vida não para pra gente se amar
 Dm
Lança desculpa na cama
                                
Não somos casal, mas a gente se ama
 E
Vamos viver nossos sonhos, a gente ainda vai se encontrar

[Refrão]

Am                     Em
   Eu vi o caminho do sol
                      Am
Eu sigo o caminho da luz
                       Em
Eu sei que a gente tentou
                       Dm
Esse mar que me aproximou
    Em      Dm     E            Am
De vez, de lei, você e eu, e eu
Composição de CHINO / Cynthia Luz / Delacruz / Geninho / Nissin / Nobru
Colaboración y revision:
  • Thiago Almeida
  • Eduardo Oliveira
  • Davyd Messias
169 reproducciones
    • ½ Tono
    • Am
    • Bbm
    • Bm
    • Cm
    • C#m
    • Dm
    • Ebm
    • Em
    • Fm
    • F#m
    • Gm
    • G#m
  • Adicionar à lista

    0 comentarios

    Ver todos os comentários

    ¿Conseguiste tocar?

    11 Tocaram 10 Ainda não

    Grave um vídeo tocando Praia do Rosa (part. Cynthia Luz e Delacruz) e nos envie!

    00:00 / 00:00
    outros vídeos desta música
    repetir qualidade Automático
    Outros vídeos desta música
    00:00 / 00:00
    Automático
    OK