Cifra Club

Aonde Quer Que Eu Vá

Os Paralamas do Sucesso

Tab de bajo: Principal
intro: 
 G|-7-9--|
 D|----7-|    
 A|------|
 E|------|


Riff 1: Olhos fechados... 
G|--------------------------------
D|--------------------------------  ( 4X ) 
A|----------------3-3--3-3-3--5-7-
E|-5-5-5-5-5-5-5-5----5---5------5*
ObS:na quarta vez ele cai pro Fá (8) ao invez de ir pro 5*

Riff 2: ( Refrão ) E aonde quer que eu vá...
G|----------------------------------------------
D|----------------------------------------------
A|-8-8-8--8-8-8-8--5-5-5-5-5---3\10-8-2-2-3-0... 
E|--------------------5---5---------------------
ObS:na segunda vez ele faz uma nota antes de ir para o Riff 1 denovo... 
D|-----5-- 
A|-5-7---- 
E|-------5...entra o riff 1

Riff 1: Não sei bem certo ...
G|--------------------------------
D|--------------------------------  ( 4X ) 
A|----------------3-3--3-3-3--5-7-
E|-5-5-5-5-5-5-5-5----5---5------5

Riff 3: Longe daqui... Longe de tudo...
G|--------------------------------------------------
D|-------------------------------------------------- ( 2x )
A|-5-5-5-5-5-5-2-2-2-2-2-2-4-4-4-4-4-4-4------------
E|---------------------------------------3-3-3-3-3-3
ObS: na terceira vez ele faz isso

G|---------------------------------------------------------------
D|--------------------------------------------------------------5
A|-5-5-5-5-5-5-5-2-2-2-2-2-2-4-4-4-4-4-4-4-4-5...-3...-2...--5-7-
e|---------------------------------------------------------------5

Riff 1: Olhos fechados... 
G|--------------------------------
D|--------------------------------  ( 4X ) 
A|----------------3-3--3-3-3--5-7-
E|-5-5-5-5-5-5-5-5----5---5------5*
ObS:na quarta vez ele cai pro Fá (8) ao invez de ir pro 5*


Riff 2: ( Refrão ) E aonde quer que eu vá...
G|----------------------------------------------
D|---------------------------------------------- (6 x )
A|-8-8-8--8-8-8-8--5-5-5-5-5---3\10-8-2-2-3-0... 
E|--------------------5---5---------------------

Final :
G|-----------|
D|----5------|
A|-5h7-------|
E|-----5...--|

É isso ai galera todo mundo sabe
que o Bi não é la um Jaco Pastorious no Baixo
então eu dei uma mudada na cifra que ficou muito legal
se quiserem os outros desenhos feitos nessa cifra me mandem um e mail
que eu mando numa boa!
Valeu galera , Abraço!

_______________________________________________________
Contribuição: Pedro Aló(pedroviskneh@bol.com.br)
00:00 / 00:00
Otros videos de esta canción
Repetir
Otros videos de esta canción
Composición de Herbert Vianna / Paulo S. Valle
205 vistas

0 comentarios

Ver todos los comentarios
00:00 / 00:00
OK