Cifra Club

Romance Ideal

Os Paralamas do Sucesso

Cifrado: Principal (guitarra y guitarra eléctrica)
Selo Cifra Club: esta cifra foi revisada para atender aos critérios oficiais da nossa Equipe de Qualidade.
tono: A
[Intro]  E  G#m  A7M
         E  G#m  A7M 
         E  G#m  A7M
         E  G#m  A7M

E           G#m
 Ela é só uma menina
F#m              A7M
   E eu pagando pelos erros
E                   G#m    F#m  A7M
 Que eu nem sei se cometi
E           G#m
 Ela é só uma menina
F#m                 A7M
   E eu deixando que ela faça
E              G#m       F#m  A7M
 O que bem quiser de mim

F#m                A7M
   Se eu queria enlouquecer
C#m       G#m       F#m   A7M
   Essa é a minha chance
    Am7          E    E4  E7
 É tudo que eu quis
F#m                A7M
   Se eu queria enlouquecer
C#m     G#m  F#m      A7M  Am7
   Esse é o romance ideal

E               G#m
Eu não pedi que ela ficasse
F#m           A7M
   Ela sabe que na volta
E             G#m   F#m  A7M
 Ainda vou estar aqui    ô ôoo
E           G#m
 Ela é só uma menina
F#m           A7M
   E eu pagando pelos erros
E                     G#m  F#m  A7M
 Que eu nem sei se cometi

F#m                A7M
   Se eu queria enlouquecer
C#m       G#m       F#m  A7M
   Essa é a minha chance
    Am7          E    E4  E7
 É tudo que eu quis
F#m                A7M
   Se eu queria enlouquecer
C#m     G#m F#m       A7M  Am7
   Esse é o romance ideal

[Solo]  E  G#m  F#m  A7M
        E  G#m  F#m  A7M
        E  G#m  F#m  A7M
        E  G#m  F#m  A7M

[Solo] 

Parte 1 De 7
E|--------------------------------------------------------|
B|--------------------------------------------------------|
G|--------------------------9h11--9/8--9/11---------------|
D|------------------9--9h11-----------------9-------------|
A|--2~~---/7---9h11---------------------------------------|
E|--------------------------------------------------------|

Parte 2 De 7
E|--------------------------------------------------------|
B|--------------------------------------------------------|
G|----------9b11r9~~--------------------------------------|
D|--9-8-7-------------------------------------------------|
A|--------------------------------------------------------|
E|--------------------------------------------------------|

Parte 3 De 7
E|--------------------------------------------------------|
B|--------9h10p9--9---------9-------------12--------------|
G|--9h11-------------11b13----11b13r11--9-----------------|
D|--------------------------------------------------------|
A|--------------------------------------------------------|
E|--------------------------------------------------------|

Parte 4 De 7
E|------------------12------------------------------------|
B|-----12b14r12b14-----12b14r12---------------------------|
G|--9-----------------------------------------------------|
D|--------------------------------------------------------|
A|--------------------------------------------------------|
E|--------------------------------------------------------|

Parte 5 De 7
E|--------------------------------------------------------|
B|--10-12-9-----------12----------------------------------|
G|----------11-9-9--9----9-9-------9-9-9------------------|
D|----------------------------9h11------------------------|
A|--------------------------------------------------------|
E|--------------------------------------------------------|

Parte 6 De 7
E|------------------17-16h17p16--------17-16h17p16--------|
B|--14/17-17-17-17--------------17-----------------17-----|
G|---------------------------------16-----------------16--|
D|--------------------------------------------------------|
A|--------------------------------------------------------|
E|--------------------------------------------------------|

Parte 7 De 7
E|--------------------------------------------------------|
B|--------17-19-19b21r19-19b21r19-19b21~~~----------------|
G|--16/18-------------------------------------------------|
D|--------------------------------------------------------|
A|--------------------------------------------------------|
E|--------------------------------------------------------|

F#m                A7M
   Se eu queria enlouquecer
C#m       G#m       F#m   A7M
   Essa é a minha chance
    Am7          E    E4  E7
 É tudo que eu quis
F#m                A7M
   Se eu queria enlouquecer
C#m     G#m  F#m      A7M  Am7
   Esse é o romance ideal

[Final] E G#m A7M
        E G#m A7M E 
00:00 / 00:00
Otros videos de esta canción
Repetir
Otros videos de esta canción
375.156 exhibiciones
    • ½ Tono
    • A
    • Bb
    • B
    • C
    • Db
    • D
    • Eb
    • E
    • F
    • F#
    • G
    • Ab
  • Agregar a la lista

Afinación de cifrado

Afinador online

    00:00 / 00:00
    OK