Cifra Club

Eu só quis dizer

Os Thompsons

Chords: Principal (acoustic and electric guitars)
tone: F#
Intro: F# (C# Eb) C# B F# 3x em Hard Core
       F# Eb B C# 2x em Ska

Solo:

E|-----------------|-------------------|
B|-/7-7-7-5---7----|--------------5----|
G|----------6---6--|-/6-6-4-2-4-6---6--|
D|-----------------|-------------------|
A|-----------------|-------------------|
E|-----------------|-------------------|

E|-----------------|-------------------|
B|-/7-7-7-5---7----|-------------------|
G|----------6---6--|-/6-6-4-2-4--------|
D|-----------------|------------4~~~~--|
A|-----------------|-------------------|
E|-----------------|-------------------|

(Esta parte é tocada em Ska)
F#       Eb           B 
Eu me arrasto eu me humilho
       C#
E ela não tá nem aí
F#      Eb         B
Mando flores e convido
         C#
Mas ela não quer sair

Eb      B       C#    
Jantar fora não vai dar
um cineminha nem pensar
Eb           B       C#
Então vamos dar uma voltnha
só para agente conversar
Eb           B     C#
Não aceitou, não aceite
dis que nnunca vai aceitar
Eb        B          C#      (C# F#)
Mas eu conheço esse joguinho  
Ela só quer me deixar

          Refrão
(Esta parte é tocada em Ska)
F#              Eb
Oque eu sinto por você é
      B           F#
uma doença sem vacina
             Eb         B           F#
Sou o seu Cirilo minha Maria Joaquina

[F# (C# Eb) C# B F# 2x em hard Core e F# Eb B D# em Ska]

(Esta parte é tocada em Ska com as mesmas notas)
Quando eu ligo e ela atende
A própia diz que não está 
Deixo recado e espero 
acho que ela vai ligar

(Esta parte é tocada em Hard Core com as mesmas notas da intro)
Passa um dia, uma semana
Eu aqui a esperar 
Será que não deram recado 
Acho melhor eu ligar
Se o telefone nào tá fora
Diz que ela vai me ligar
Mas eu conheço esse joguinho
Ela só quer me usar

Refrão 
(F# (C# Eb) C# B F# 2x em hard Core)

(F# Eb C#)
Essa vida é engraçada 
Veja só como é que é
Você é quem não te quer
Quem te quer você não quer

Aqui você encontrará as notas em Power Chord
E|---------------------|
B|---------------------|
G|------4----6---------|
D|-4----4----6----8----|
A|-4----2----4----8----|
E|-2--------------6----|
   F#   B    C#   Eb
00:00 / 00:00
Other videos of this song
Repeat
Other videos of this song
Composer not found.
Collaboration and Review:
  • Sergio souza
42 views
    • ½ Tone
    • A
    • Bb
    • B
    • C
    • Db
    • D
    • Eb
    • E
    • F
    • F#
    • G
    • Ab
  • Add to list
    00:00 / 00:00
    OK