Cifra Club

Nasty Letter

Otis Taylor

Cifrado: Principal (guitarra y guitarra eléctrica)
tono: C
Intro:
E|-----------------------------------------------------------------------|
B|-----------------------------------------------------------------------|
G|-----------------------------------------------------------------------|
D|-5h7-5-3-5---------5h7-5-3-5-5/10-------5h7-5-3-5--------------3-----0-|
A|-----------3--------------------------------------3------0-3-5---0h3---|
E|-----------------------------------------------------------------------|
    D                         C
E|---------------------------3-----3-3--3-3--3-3----|
B|-3-------------------------3-----3-3--3-3--3-3----|
G|-2---------------3-2-------0-----0-0--0-0--0-0----|
D|-0-----2-3-5-3-2-----------x-----x-x--x-x--x-x----|
A|---------------------------3-----2h3--2h3--2h3----|
E|--------------------------------------------------|

E|----------3--------3----------|
B|-3--------3--------3--------3-|
G|-2--------0--------0--------2-|
D|-0--------0--------0--------0-|
A|----------3--------2----------|
E|------------------------------|

Dm                             C
   Somebody wrote me a nasty letter, But they
G                      G/C     Dm
didn't  sign           their   name

Dm                             C
   I think I know, I know who  wrote it Well, I recog-
G                      G/C     Dm
nize,  recognize       that    hand

Dm                             C
Its getting warm         Oh so warm  So
G                       G/C    Dm
warm            On a winters   day

Dm              C                 G         G/C      Dm
 I'm reading backwards, reading backwards On this page
Dm                     C                       G        G/C     Dm
Hoping to defend And whatever comes I've been wrongly, wrongly accused
Dm                    C                   G         G/C    Dm
been wrong, I've been wrongly, I've been wrongly, wrongly accused
00:00 / 00:00
Otros videos de esta canción
Repetir
Otros videos de esta canción
Composición de Otis Taylor
Colaboración y revisión:
  • noca
138 vistas
    • ½ Tono
    • A
    • Bb
    • B
    • C
    • Db
    • D
    • Eb
    • E
    • F
    • F#
    • G
    • Ab
  • Agregar a la lista

    0 comentarios

    Ver todos los comentarios

    ¿Lograste tocar?

    0 Tocaron 0 Aún no

    ¡Graba un video tocando Nasty Letter y envíanoslo!

    00:00 / 00:00
    OK