Cifra Club

Ghost Riders In The Sky

Outlaws

Cifrado: Principal (guitarra y guitarra eléctrica)
tono: C
Intro:

     Am                          G              F                E9
|---0----0-0----0-0---------------------------------------------0-|-------0-|
|---1----0-0----1-1h0-----------0-0-1-3p1-0----1--0-0-1-1p0-----0-|------0--|
|---2----2-2----2-2---2p0-------0-0-0-0---0----2--2-2-2-2--p0---2-|-----1---|
|---2----2-2----2-2-------------0-0-0-0---0----3--3-3-3-3-------2-|----2----|
|---0----0-0----0-0-------------2-2-2-2---2----3--3-3-3-3-------2-|---2-----|
|-------------------------0-2-3-3-3-3-3---3---------------------0-|--0------|

        Am                     G                      F
|---------------------------------------------H*7---------------------------|
|------1---0-1-3-1-0-1-0------3----3-------3---------1--0-1-1p0------------0|
|------2---2-2-2-2-2-2-2-------0----0-----0----------2--2-2-----2-----2----1|
|------2---2-2-2-2-2-2-2--------0----0---0-----------3--3-3------3-----2---2|
|------0---0-0-0-0-0-0-0---------2----2-2------------3--3-3-------3-----2--2|
|--3^--------------------0-2-3----3----3---------------------------1-0---0-0|

      x  x     x  x     x  x     x  x
|-------------------------------------|
|--1--1--1--1--1--1--1--1--1--1--1--1-|
|--2--2--2--2--2--2--2--2--2--2--2--2-|  2x
|--2--2--2--2--2--2--2--2--2--2--2--2-|
|--0--0--0--0--0--0--0--0--0--0--0--0-|
|-------------------------------------|
   1        2        3        4

     Am                                            Am
|-------------------------------------------------------|
|--------------------------------------------------1----|
|--0--0h2-2-2--4-5---5-5---4---2-2-2---0--0h2------2----|
|--------------------------------------------------2----|
|--------------------------------------------------0----|
|-------------------------------------------------------|

             G                     Am            F             Am 
             W                     W
|-------------------------------------------------------------3s5-|
|----5-5---8-8--------8s10-10-10---5-------------------1~~~~------|
|-----------------------------------------------------------------|
|------------------------------------------------3-3-3------------|
|-----------------------------------------------------------------|
|--------------------------------------------3-2-1----------------|

Verso 1:

   Am                               G 
An old cowpoke went ridin' out one dark and lonely day,
 Am 
Upon a ridge he rested as he went along his way
 Am                                                      G   F 
When all at once a mighty herd of red eyed cows he saw
 F                                     C            Am 
a plowin' through the ragged skies and up a cloudy draw

            G                     Am       F       Am 
             W                     W
|------------------------------------------1-------0--|
|----5-5---8-8--------8s10-10-10---5-------1-------1--|
|------------------------------------------2-------2--|
|------------------------------------------3-------2--|
|------------------------------------------3-------0--|
|------------------------------------------1----------|

Verso 2:

      Am                                  G 
Their brands were still on fire and their hooves were made of steel
      Am 
Their horns were black and shiny and their hot breath he could feel
   Am                                                              G   F 
A bolt of fear went through him as they thundered through the sky
 F                                      C                    Am 
He saw the riders coming hard... and he heard their mournful cry

            G                     Am   G   F       Am 
             W                     W
|------------------------------------------1-------------------0--|
|----5-5---8-8--------8s10-10-10---5-------1-------------------1--|
|------------------------------------------2-------------------2--|
|------------------------------------------3-------------------2--|
|------------------------------------------3-------------------0--|
|------------------------------------------1----------------------|
   Yippie I ay          Yippie I Oooh     Ghost Riders in the sky

Verso 3:

     Am                                        G 
The faces gaunt their eyes were blurred their shirts all soaked with sweat
     Am 
They're ridin' hard to catch that herd but they 'aint caught 'em yet
     Am                                                       G   F 
'cause they've got to ride forever in the range up in the sky
  F                              C                   Am 
On horses snorting fire as they ride hard hear them cry

            G                     Am   G   F       Am 
             W                     W
|------------------------------------------1-------------------0--|
|----5-5---8-8--------8s10-10-10---5-------1-------------------1--|
|------------------------------------------2-------------------2--|
|------------------------------------------3-------------------2--|
|------------------------------------------3-------------------0--|
|------------------------------------------1----------------------|
   Yippie I ay          Yippie I Oooh     Ghost Riders in the sky
00:00 / 00:00
Otros videos de esta canción
Repetir
Otros videos de esta canción
Compositor no encontrado.
Colaboración y revisión:
  • Bruna Cardoso
325 exhibiciones
    • ½ Tono
    • A
    • Bb
    • B
    • C
    • Db
    • D
    • Eb
    • E
    • F
    • F#
    • G
    • Ab
  • Agregar a la lista
    00:00 / 00:00
    OK