Cifra Club

Como eres

Ov7

Cifrado: Principal (guitarra y guitarra eléctrica)
tono: G
INTRODUCCIÓN
(1)

E|----------3---------------------------0--------------1------s--------|
B|--------------3--------3---1------1-------1--------3---3---3-5-3-1-3|
G|-------0------------0-----------0---0---0---0----2-------2----------|
D|-----------------------------------------------0--------------------|
A|----3-------------2-----------0-------------------------------------|
E|--------------------------------------------------------------------|

(en esta parte se repite dos veces lo de arriba)

Digo si, dices no y no acaba la discusión,
y aun que pides que nunca me falla dices primero adiós.

      Am                      Em     F                    C 
Direccionas  todo al mismo tiempo y caminas contra el viento
      Am                    Em    F                 G  
Y a pesar de que poco te entiendo no cambiaría nada en ti si...


C                        Am                    F 
Al mirar tus ojos me inundan como el mar, eres mi libertad
    G  
Mi sueño mi vida y...


 C                         Am                      F 
Nadie más me llena de bella intimidad, quiero vivir en ti
Em                 F    Em              F           G                C 
Tu mi principio y fin, lluvia de fuego, te amo como eres hasta el fin

(Y en seguida viene el punteo)

E|-----s--------------------------------9-5--------------|
B|--5-6-8-8-6-5-6-5---5------------p--------9-5------s---|
G|------------------7---7-5-7-5---7-9-7---------7-5-7-9-7|
D|------------------------------7------------------------|
A|-------------------------------------------------------|
E|-------------------------------------------------------|





      D       A       Bm           G    A 
Dices tu digo yo y me pides el corazón
      D         A          Bm              G       A 
Pero cuando me acerco te escapas dime cual es mi error


        Bm                  F#m   G                     A 
Cuentas el final siempre primero, para ti no existe el tiempo
    Bm                    F#m   G            A 
A pesar de que eres un misterio no cambiaría nada en ti si...


D                            Bm                         G  
Al mirar tus ojos me inundan como el mar, luce mi oscuridad
    A 
Mi sueño y vida y...


D                           Bm                         G  
Nadie más me llena el espíritu de paz, quiero vivir en ti
F#m               G     F#m              G           A 
Tu mi principio y fin, lluvia de fuego, te amo como siempre
          D 
Hasta el fin


(Y viene el punteo final)

E|-----s-------s-------s------s------------------|
B|----3-5-3---3-5-3---3-5-3--2-3-2---s---s-------|
G|--2-------2-------2-------------2-2-4-2-4-2---2|
D|--------------------------------------------4--|
A|-----------------------------------------------|
E|-----------------------------------------------|
00:00 / 00:00
Otros videos de esta canción
Repetir
Otros videos de esta canción
Composición de Donatella Rettore
3 vistas
    • ½ Tono
    • A
    • Bb
    • B
    • C
    • Db
    • D
    • Eb
    • E
    • F
    • F#
    • G
    • Ab
  • Agregar a la lista

    0 comentarios

    Ver todos los comentarios

    ¿Lograste tocar?

    0 Tocaron 0 Aún no

    ¡Graba un video tocando Como eres y envíanoslo!

    00:00 / 00:00
    OK