Cifra Club

Argos

Ozielzinho

Cifrado: Principal (guitarra y guitarra eléctrica)
tono: A
(solo)

                      S  E   E.  S   Q    E  S  E      E  E  E  Q    E  E  E
E|-------|-------|-------------------------------|---------------------------|
B|-------|-------|--------10-----------------10--|---L--8--7-----------------|
G|-------|-------|--4s-7-------9s-11----L--------|------------9----7--9--9b--|
D|-------|-------|-------------------------------|---------------------------|
A|-------|-------|-------------------------------|---------------------------|
E|-------|-------|-------------------------------|---------------------------|

   E  S S S S Q     E  E  S S    E  S S E  Q    E  E  E
-----------------------------|---------------------------|
-----------------------------|-----------------------7~--|
--L--9-7-------------------6-|--7--6-7----9----7--9------|
---------9-7-9~----L-----9---|---------9-----------------|
-----------------------------|---------------------------|
-----------------------------|---------------------------|

   Q     E  Q     E  E   E     E  E  E   Q    E  E   E
---------------------------|-----------10----9--7-------|
--L----10--7~----L-----10--|--L--8--7--------------10b--|
---------------------------|----------------------------|
---------------------------|----------------------------|
---------------------------|----------------------------|
---------------------------|----------------------------|

   E  E  E  E  E  E  E  S S     E  S  S E   Q     E   E   E
-----------------------7-9-|--10--9-10-7--14----12--10--19--|
--L--L--L--L--L--L---------|--------------------------------|
---------------------------|--------------------------------|
---------------------------|--------------------------------|
---------------------------|--------------------------------|
---------------------------|--------------------------------|

   E   E  E  E  E  E  E   E       E   E   E   Q     E   E   E
--L~--L--L--L--L--L-----21b--|---L--21--19--17----------------|
-----------------------------|--------------------20--19--17--|
-----------------------------|--------------------------------|
-----------------------------|--------------------------------|
-----------------------------|--------------------------------|
-----------------------------|--------------------------------|

  \1/
  E    E  E   Q     E  E   S  S
--------------------------14-15-|
--L---19-----19~----L-----------|
--------------------------------|
--------------------------------|
--------------------------------|
--------------------------------|

                     T
   |--3--|  |--3--|  |--3--|  |--3--|  |--3--|  |--3--|
   S  S  S  S  S  S  S  S  S  S  S  S  S  S  S  S  S  S  Q
--17-15-14----------19-17-15-14-------------------------------|
-----------17-15-14-------------17-15-14-17-15-14-------------|
--------------------------------------------------16-14-16----|
--------------------------------------------------------------|
--------------------------------------------------------------|
--------------------------------------------------------------|

   |--3--|  |--3--|  |--3--|  |--3--|  |--3--|  |--3--|  |--3--|  |--3--|
   S  S  S  S  S  S  S  S  S  S  S  S  S  S  S  S  S  S  S  S  S  S  S  S
--------------------14-17-19-17-22-17-19-17-14----------------------------|
-----------------15----------------------------17-15-17-19-17-22-17-19-17-|
-----------14-16----------------------------------------------------------|
--------16----------------------------------------------------------------|
--14-17-------------------------------------------------------------------|
--------------------------------------------------------------------------|

   |--3--|  |--3--|  |--3--|  |--3--|  |--3--|  |--3--|  |--3--|  |--3--|
   S  S  S  S  S  S  S  S  S  S  S  S  S  S  S  S  S  S  S  S  S  S  S  S
--------------------------------------------------------14-17-19-17-14----|
--15-------------------------------------------------15----------------17-|
-----16-14-16-19-16-21-16-19-16-14-------------14-16----------------------|
-----------------------------------16-------16----------------------------|
--------------------------------------14-17-------------------------------|
--------------------------------------------------------------------------|

    E.   S  S  S  Q      E   E   E      E   E   E   Q     Q    E
-----------------------------------|-----------------------------|
--15-------------------------------|--15------15--17~----L----L--|
-------18-16-14-16~-----L---L--16--|------16---------------------|
-----------------------------------|-----------------------------|
-----------------------------------|-----------------------------|
-----------------------------------|-----------------------------|

   E    E   E   Q     Q    E       E   E   E   Q     E  E   E
----------15--17~----L----L--|---------------11----12--L-------|
-----/15---------------------|--/14------14--------------------|
-----------------------------|-------13-------------------14~--|
-----------------------------|---------------------------------|
-----------------------------|---------------------------------|
-----------------------------|---------------------------------|

   W                    E  E   E  Q     E  E  E     Q     E  Q    Q    E
-------------------|----------------------------|------------------------|
-------------------|------9--10--9b----9--7--9--|--L----12--9----L----L--|
--L----------------|--11------------------------|------------------------|
-------------------|----------------------------|------------------------|
-------------------|----------------------------|------------------------|
-------------------|----------------------------|------------------------|

    E   E   E   Q      E   E   E      Q     E   Q    Q    E
------11--12--11b----11------16--|---L----17--12----L----L--|
--14---------------------14------|--------------------------|
---------------------------------|--------------------------|
---------------------------------|--------------------------|
---------------------------------|--------------------------|
---------------------------------|--------------------------|

    E   E   E   E   E   E   E   E      Q     E   E  E  E  E  E
--14--16--17--16b--L--16--14--16--|---L----16~--L--L--L--L--L--|
----------------------------------|----------------------------|
----------------------------------|----------------------------|
----------------------------------|----------------------------|
----------------------------------|----------------------------|
----------------------------------|----------------------------|

   E   E  E   Q    E  E  E     E  E  E  Q.     S S S S
----------------------------|--------------------------|
----------------------------|--------------------------|
--13--11--9--11----9--8--9--|--L--8--6-----------------|
----------------------------|-----------9------------6-|
----------------------------|----------------------9---|
----------------------------|--------------------------|

   E  E  E  Q    E  E  E     Q    E  E   E  E  E  E
-------------------------|--------------------------|
-------------------------|--------------------------|
-------------------------|-------8--9--11--9--8--L--|
--7--6-------------------|--------------------------|
--------9--7----6--7--9--|--L-----------------------|
-------------------------|--------------------------|

  E  E  E   Q     E  E   E      E   E  E   Q     E  E   S  S
-----------------------------|----------------------------11-|
-----------------------------|-------------------------14----|
--9--8--6--13----11--9--13b--|--L--13--9--11~----L-----------|
-----------------------------|-------------------------------|
-----------------------------|-------------------------------|
-----------------------------|-------------------------------|

    E   E   E   Q     E   E   E     E   E   E   E  E  E  E   E
--12--11------16----14--12--14--|--L---L--14~--L--L--L-----14--|
----------14--------------------|------------------------------|
--------------------------------|------------------------------|
--------------------------------|------------------------------|
--------------------------------|------------------------------|
--------------------------------|------------------------------|

   E      E   E   Q     E   E   E     E   E  E   Q    E  E   S S
--14pbr---L--12--14----12--11--12--|--L--11--9-------------------|
-----------------------------------|------------12----L--------9-|
-----------------------------------|------------------------11---|
-----------------------------------|-----------------------------|
-----------------------------------|-----------------------------|
-----------------------------------|-----------------------------|

                                                    SH
    E  E   E  Q    E  E   E     Q    E  E   E  E     E   E
----------------------------|------------------------------|
--10--9---------------------|-----------------9--12~--L--|
---------11--9----8--9--11--|--L----8--9--11---------------|
----------------------------|------------------------------|
----------------------------|------------------------------|
----------------------------|------------------------------|

   E   E  E   Q     E   E   E      E   E   E   Q    E  E  S S
--12--11--9--16----14--12--16b--|--L--16--12--14----L---------|
--------------------------------|-----------------------------|
--------------------------------|-----------------------------|
--------------------------------|-----------------------------|
--------------------------------|-----------------------------|
--------------------------------|-----------------------------|

  |--3--|  |--3--|  |--3--|
  S  S  S  S  S  S  S  S  S  Q      E   E   E     W
-------------------11-12-14-14b----14--12--14--|--L~----------------|-----|
----------10-12-14-----------------------------|--------------------|-----|
--9-11-13--------------------------------------|--------------------|-----|
-----------------------------------------------|--------------------|-----|
-----------------------------------------------|--------------------|-----|
-----------------------------------------------|--------------------|-----|

    E.  E.   E   Q.       E      E.  E.   E   Q    E  E
-----------11---------------|---------------------------|
-------9-------11b------11--|-------9---11--------------|
--10------------------------|--12-----------10----L-----|
----------------------------|---------------------------|
----------------------------|---------------------------|
----------------------------|---------------------------|

   |-3-|  |-3-| |-3-| |-3-| |-3-| |-3-|  |-3-|  |-3-|
   S S S  S S S S S S S S S S S S S S S  S S S  S S S
----------------------------8-6-4-------11-9-8--------|
----------------9-8-6-------------8-6-4--------11-9-8-|
--10-8-6--------------8-6-5---------------------------|
---------10-8-6---------------------------------------|
------------------------------------------------------|
------------------------------------------------------|

   |--3-|  |--3-|  |--3--|  |--3--|  |--3--|  |--3--|  |--3--|  |--3--|
   S  S S  S  S S  S  S  S  S  S  S  S  S  S  S  S  S  S  S  S  S  S  S
--13-11-9---------15-13-11----------16-15-13----------18-16-15----------|
----------13-11-9----------14-13-11----------16-14-13----------18-16-14-|
------------------------------------------------------------------------|
------------------------------------------------------------------------|
------------------------------------------------------------------------|
------------------------------------------------------------------------|

    H           E   E   E   E      E   E   E   E   E    E   E   E
------------------18--16--16b--|--L--16--15--16--14b--13--11------|
--23b~---------L---------------|------------------------------13--|
-------------------------------|----------------------------------|
-------------------------------|----------------------------------|
-------------------------------|----------------------------------|
-------------------------------|----------------------------------|

    E   S S  S  S  E  E  E  E  E
--11--13---13-11-13--L--L--L--L--|
---------------------------------|
---------------------------------|
---------------------------------|
---------------------------------|
---------------------------------|

   T  T  T  T  T  T  T  T  T  T  T  T  T  T  T  T  T  T  T  T  T  T  T  T  Q
--20-21-20-16----------16-20-21-20-16----------16-20-21-20-16----------16-20----
--------------18----18----------------18----18----------------18----18----------
-----------------17----------------------17----------------------17-------------
--------------------------------------------------------------------------------
--------------------------------------------------------------------------------
--------------------------------------------------------------------------------

    E   E   E   E   E   E   E   E     E   E   E   E   E   E   E   E
----------------------------------|---------------------------------|
----------------------------------|-----16--15--16--17--16--15--16--|
------16--15--16--18--16--15--16--|---------------------------------|
--18------------------------------|---------------------------------|
----------------------------------|---------------------------------|
----------------------------------|---------------------------------|

    E   E   E   E   E   E   E   E
------16--15--16--18--16--15--16--|
---L------------------------------|
----------------------------------|
----------------------------------|
----------------------------------|
----------------------------------|

                           |-----7-----|  |-----7-----|  7  7  7  7
   T  T  T  T  T  T  T  T  S  S  S  S  S  S  S  S  S  S  S  S  S  S  Q
--15-16-15-12-------------------------------------------------------------|
--------------16-14-12-14-16-14-12----------------------------------------|
-----------------------------------15-13-12-13-15-13-12-------------------|
--------------------------------------------------------14-13-11----------|
-----------------------------------------------------------------14-11----|
--------------------------------------------------------------------------|

   |--6--|  |--6--|  |--6--|  |--6--|  |--6--|  |--6--|  |--6--|  |--6--|
   S  S  S  S  S  S  S  S  S  S  S  S  S  S  S  S  S  S  S  S  S  S  S  S
--19-16----------16-21-16----------16-19-16----------16-21-16----------16-|
--------21-16-21----------21-16-21----------21-16-21----------21-16-21----|
--------------------------------------------------------------------------|
--------------------------------------------------------------------------|
--------------------------------------------------------------------------|
--------------------------------------------------------------------------|

   |--6--|  |--6--|  |--6--|  |--6--|  |--6--|  |--6--|  |--6--|  |--6--|
   S  S  S  S  S  S  S  S  S  S  S  S  S  S  S  S  S  S  S  S  S  S  S  S
--19-16----------16-21-16----------16-19-16----------16-21-16----------16-|
--------21-16-21----------21-16-21----------21-16-21----------21-16-21----|
--------------------------------------------------------------------------|
--------------------------------------------------------------------------|
--------------------------------------------------------------------------|
--------------------------------------------------------------------------|

   7  7  7  7  7  7  7  7  7  7  7  7  7  7  7  7  7  7  7  7  7  7  7  7  7  7
   S  S  S  S  S  S  S  S  S  S  S  S  S  S  S  S  S  S  S  S  S  S  S  S  S  S
--19-18-16----------------------------------------------------------------------
-----------19-17-16-17-19-17-16----------------------------------------------16-
--------------------------------18-16-15-16-18-16-15----------------15-16-18----
-----------------------------------------------------18-16-14-16-18-------------
--------------------------------------------------------------------------------
--------------------------------------------------------------------------------

   7  7  7  7  7  7  7  7  7  7  7  7  7  7  7  7  7  7  7  7  7  7  7  7  7  7
   S  S  S  S  S  S  S  S  S  S  S  S  S  S  S  S  S  S  S  S  S  S  S  S  S  S
--16----------------------------------------------------------------------------
-----19-17-16----------19-17-16-------------17-16-------------------------------
--------------18-16-15----------18-16-15----------18-16-15-------18-16-15-13----
-----------------------------------------18----------------18-16-------------16-
--------------------------------------------------------------------------------
--------------------------------------------------------------------------------

   Q.     E  E  E  E  E      E  E  E  Q     E  E  E     Q.      Q    S  S E  E
-------------------------|--------------------------|--------------------------|
-------------------------|-----------9b----9-----7--|--L~------L---------------|
--6---------6--8--9--8b--|--L--8--6-----------9-----|---------------6s-8-------|
-------------------------|--------------------------|-----------------------9--|
-------------------------|--------------------------|--------------------------|
-------------------------|--------------------------|--------------------------|

                                           |--6-| |--6-| |----7---|  7 7
  Q    S  S E  S  S E  S  S E     H        S S  S S S  S S S  S S S  S S
-------------------------------|--------------------------------8-9-11-9-|
-------------------------------|-------------------------8-9-11----------|
------------4-------4-------6--|--L---------------6-8-10-----------------|
--L----4s-6----4s-6----4s-6----|-----------6-8-10------------------------|
-------------------------------|-----------------------------------------|
-------------------------------|-----------------------------------------|

   H        E  E   E  E     Q     E  Q    E  E  E
------------------------|-------------------------|
--9-----------8b-----8--|--L----------------------|
------------------------|-------10--8----L-----6--|
------------------------|-------------------------|
------------------------|-------------------------|
------------------------|-------------------------|

   E  E   E  E  E   E   E   E     Q     E  Q    E  E  E
----------------------11------|-------------------------|
------------8--9--11------13--|--L----11--9----L--L-----|
--L--8--10--------------------|-------------------------|
------------------------------|-------------------------|
------------------------------|-------------------------|
------------------------------|-------------------------|

    Q      E   Q     Q     E      Q     E  Q    E  E  E
-------------------11---------|--------------------------|
--12b----13--11----------11b--|--L----11--9----L-----9b--|
------------------------------|--------------------------|
------------------------------|--------------------------|
------------------------------|--------------------------|
------------------------------|--------------------------|

  E  E  E  E  E  E  E  E      H        H
---------------------------|--------------------|
--L--9--7--7--L--6--7------|--------------------|
-----------------------8~--|--L-----------------|
---------------------------|--------------------|
---------------------------|--------------------|
---------------------------|--------------------|

    Q      Q      E    E  E   E      Q    E   E  E  E  E  E
--11-----11-----11---------------|--------------------------|
--11b----11b----11b--11--9--11~--|--L-----------8--9--L--9--|
---------------------------------|-------8--10--------------|
---------------------------------|--------------------------|
---------------------------------|--------------------------|
---------------------------------|--------------------------|

   E  E   E  E  E   E   E      E     Q     E  Q     Q    E
----------------------11---------|-------------------------|
--L--8------8--9--11------11g13--|--L----11--9~----L-------|
--------10-----------------------|-------------------------|
---------------------------------|-------------------------|
---------------------------------|-------------------------|
---------------------------------|-------------------------|

                   \1/
    Q     E   Q     Q     E      E   Q      Q     E  E   E
--21----20--18----23----20~--|--L----------------------18--|
-----------------------------|-----23~----21~----L---------|
-----------------------------|-----------------------------|
-----------------------------|-----------------------------|
-----------------------------|-----------------------------|
-----------------------------|-----------------------------|

  E   E   E   E   E   E   E   E     W
--L--16--14--14---L--13--14------|--------------------|
-----------------------------16--|--L~----------------|
---------------------------------|--------------------|
---------------------------------|--------------------|
---------------------------------|--------------------|
---------------------------------|--------------------|

   S  E   E.  S   Q    E  S  E      E  E  E  Q    E  E  E
-------------------------------|---------------------------|
--------10-----------------10--|---L--8--7--5--------------|
--4s-7-------9s-11----L--------|-----------------7--9--9b--|
-------------------------------|---------------------------|
-------------------------------|---------------------------|
-------------------------------|---------------------------|

   E  S S S S Q     E  E  S S    E  S S E  Q    E  E  E
-----------------------------|---------------------------|
-----------------------------|-----------------------7~--|
--L--9-7-------------------6-|--7--6-7----9----7--9------|
---------9-7-9~----L-----9---|---------9-----------------|
-----------------------------|---------------------------|
-----------------------------|---------------------------|

  Q     E  Q     E  E   E     E  E  E   Q    E  E   S   S
---------------------------|-----------10----9--7---------|
--L----10--7~----L-----10--|--L--8--7--------------10s-12-|
---------------------------|------------------------------|
---------------------------|------------------------------|
---------------------------|------------------------------|
---------------------------|------------------------------|

    E  E  E  E  E  E  E  S S     E  S  S E   Q     E   E   E
------------------------7-9-|--10--9-10-7--14----12--10--19--|
---L--L--L--L--L--L---------|--------------------------------|
----------------------------|--------------------------------|
----------------------------|--------------------------------|
----------------------------|--------------------------------|
----------------------------|--------------------------------|

   E   E  E  E  E  E  E   E       E   E   E   Q     E   E   E
--L~--L--L--L--L--L-----21b--|---L--21--19--17----------------|
-----------------------------|--------------------20--19--17--|
-----------------------------|--------------------------------|
-----------------------------|--------------------------------|
-----------------------------|--------------------------------|
-----------------------------|--------------------------------|

  \1/
  E    E  E   Q     E  E   S  S
--------------------------14-15-|
--L---19-----19~----L-----------|
--------------------------------|
--------------------------------|
--------------------------------|
--------------------------------|

   |--3--|  |--3--|  |--3--|  |--3--|  |--3--|  |--3--|
   S  S  S  S  S  S  S  S  S  S  S  S  S  S  S  S  S  S  Q
--17-15-14----------19-17-15-14-------------------------------|
-----------17-15-14-------------17-15-14-17-15-14-------------|
--------------------------------------------------16-14-16----|
--------------------------------------------------------------|
--------------------------------------------------------------|
--------------------------------------------------------------|

   |--3--|  |--3--|  |--3--|  |--3--|  |--3--|  |--3--|  |--3--|  |--3--|
   S  S  S  S  S  S  S  S  S  S  S  S  S  S  S  S  S  S  S  S  S  S  S  S
--------------------14-17-19-17-22-17-19-17-14----------------------------|
-----------------15----------------------------17-15-17-19-17-22-17-19-17-|
-----------14-16----------------------------------------------------------|
--------16----------------------------------------------------------------|
--14-17-------------------------------------------------------------------|
--------------------------------------------------------------------------|

   |--3--|  |--3--|  |--3--|  |--3--|  |--3--|  |--3--|  |--3--|  |--3--|
   S  S  S  S  S  S  S  S  S  S  S  S  S  S  S  S  S  S  S  S  S  S  S  S
--------------------------------------------------------14-17-19-17-14----|
--15-------------------------------------------------15----------------17-|
-----16-14-16-19-16-21-16-19-16-14-------------14-16----------------------|
-----------------------------------16-------16----------------------------|
--------------------------------------14-17-------------------------------|
--------------------------------------------------------------------------|

    E.   S  S  S  Q      E   E   E      E   E   E   Q     Q    E
-----------------------------------|-----------------------------|
--15-------------------------------|--15------15--17~----L----L--|
-------18-16-14-16~-----L---L--16--|------16---------------------|
-----------------------------------|-----------------------------|
-----------------------------------|-----------------------------|
-----------------------------------|-----------------------------|

   E    E   E   Q     Q    E
----------15--17~----L----L--|-----|-----|-----||
-----/15---------------------|-----|-----|-----||
-----------------------------|-----|-----|-----||
-----------------------------|-----|-----|-----||
-----------------------------|-----|-----|-----||
-----------------------------|-----|-----|-----||

w - whole
H - half
Q - quarter
E|- 8th
S - 16th
T - 32nd
X - 64th
. - note dotted
|-n-|  - n-tuplets

L - tied note
x - dead note
G|- grace note
(n) - ghost note
> - accentuded note
NH - natural harmonic
AH - artificial harmonic
TH - tapped harmonic
SH - semi harmonic
PH - pitch harmonic
h - hammer on
p - pull off
B|- bend
br - bendRelease
pb - preBend
pbr - preBendRelease
brb - bendReleaseBend
\n/ - tremolo bar dip
\n - tremolo bar dive
-/n - tremolo bar Release up
/n\ - tremolo bar inverted dip
/n - tremolo bar return
-\n - tremolo bar Release down
S - shift slide
s - legato slide
/ -  slide into from below or out of upwards
\ -  slide into from above or out of downwards
~ - vibrato
W - wide vibrato
tr - trill
TP - tremolo picking
T - tapping
S - slap
P - pop
< - fade in
^ - brush up
v - brush down
00:00 / 00:00
Otros videos de esta canción
Repetir
Otros videos de esta canción
Compositor no encontrado.
Colaboración y revisión:
  • Lenon Forest
73 vistas
    • ½ Tono
    • A
    • Bb
    • B
    • C
    • Db
    • D
    • Eb
    • E
    • F
    • F#
    • G
    • Ab
  • Agregar a la lista

    0 comentarios

    Ver todos los comentarios

    ¿Lograste tocar?

    0 Tocaron 0 Aún no

    ¡Graba un video tocando Argos y envíanoslo!

    00:00 / 00:00
    OK