Cifra Club

Cálice

Ozielzinho

Cifrado: Principal (guitarra y guitarra eléctrica)
tono: C
    A5
E|-------------------------------------------------------------------|
B|-------------------------------------------------------------------|
G|-14-14-------16-16-------17-17-------19-19-------17-17-------16-16-|
D|-------14-14-------14-14-------14-14-------14-14-------14-14-------|
A|-------------------------------------------------------------------|
E|-------------------------------------------------------------------|
                             C5                   G5          D5
E|-------------------------------------------------------------------|
B|--------------------------15b--15br-13---------13----15b17r15------|
G|-------14-14-------12------------------14---14----14---------------|
D|-14-14-------14-14----14-------------------------------------------|
A|-------------------------------------------------------------------|
E|-------------------------------------------------------------------|
     F5
E|--------------------------------------------------|
B|--------------------------13-15-13----------------|
G|--------------------12-14----------14-12----------|
D|--------------15-12----------------------15-12----|
A|--------15-12----------------------------------15-|
E|--13-10-------------------------------------------|
     F5
E|--------------------------------------------------|
B|--------------------------13-15-13----------------|
G|--------------------12-14----------14-12----------|
D|--------------15-12----------------------15-12----|
A|--------15-12----------------------------------15-|
E|--13-10-------------------------------------------|
      Am      Am
E|---0---|---0---|
B|---1---|---1---|
G|---2---|---2---|
D|---2---|---2---|
A|---0---|---0---|
E|-------|-------|
00:00 / 00:00
Otros videos de esta canción
Repetir
Otros videos de esta canción
Compositor no encontrado.
Colaboración y revisión:
  • Thyerrí Cruz
63 vistas
    • ½ Tono
    • A
    • Bb
    • B
    • C
    • Db
    • D
    • Eb
    • E
    • F
    • F#
    • G
    • Ab
  • Agregar a la lista

    0 comentarios

    Ver todos los comentarios

    ¿Lograste tocar?

    0 Tocaron 0 Aún no

    ¡Graba un video tocando Cálice y envíanoslo!

    00:00 / 00:00
    OK